PrimaNota.ru - самый крупный в мире бесплатный архив песенных текстов, аккордов, табулатур и нот


Forever Never - Never - таба, видео

Регистрация Запомнить меня
Войти через:  Facebook Google Twitter Vk Yandex Mail.ru

Forever Never - Never - таба, видео

Печатать
Просмотров: 306
Forever Never - Never
Tabbed by Breadtruck
Drop B Tuning, B F# B E G# C#

Strumming Rhythm not shown for the most part. It's not hard to figure it out yourself.
X in between chord = repeat X number of times.
Tabbed out for one guitar.


intro/chorus
|----------------------------------------------------------|
|----------------------------------------------------------|
|--9/10--/-15--14--\-7--\-5--\-7--\-9--\-14~---------------|
|----x-----x---x-----x----x----x----x---------5-000-5-000--| x2
|--7/8---/-13--12--\-5--\-3--\-5--\-7--\-12~--5-000-5-000--|
|---------------------------------------------5-000-5-000--|
                                                ...   ...

verse
|--------------------------------------------------------------|
|--------------------------------------------------------------|
|--------------------------------------------------------------|
|-------7*----------7*------------7*---------------------------|
|------------------------------------------------3---------1---|
|-3-0-0---0-0-3-0-0----0-0--3-0-0---0-0--6-6-6-6---4-4-4-4---2-|
    . .   . .   . .    . .    . .   . .  . . . .   . . . .   .

|--------------------------------------------------------------|
|--------------------------------------------------------------|
|--------------------------------------------------------------|
|-------7*----------7*~-----------7*---------------------------|
|------------------------------------------------3---------1---|
|-3-0-0---0-0-3-0-0---------3-0-0---0-0--6-6-6-6---4-4-4-4---2-|
    . .   . .   . .           . .   . .  . . . .   . . . .   .

<>


intro/chorus x2

verse x1, then a variation of the verse:

|--------------------------------------------------------------|
|--------------------------------------------------------------|
|-------5*------------------------5*---------------------------|
|--------------------------------------------------------------|
|------------------------------------------------3---------1---|
|-3-0-0---0-0-3-0-0-2*-0-0--3-0-0---0-0--6-6-6-6---4-4-4-4---2-|
    . .   . .   . .    . .    . .   . .  . . . .   . . . .   .

|--------------------------------------------------------------|
|--------------------------------------------------------------|
|-------5*------------------------5*---------------------------|
|--------------------------------------------------------------|
|------------------------------------------------3---------1---|
|-3-0-0---0-0-3-0-0--2*~----3-0-0---0-0--6-6-6-6---4-4-4-4---2-|
    . .   . .   . .           . .   . .  . . . .   . . . .   .


intro/chorus x2


bridge pt 1
|-----------------------|
|-----------------------|
|--10~-/--15-14-15-14~--|
|-----------------------|
|--8~--/--13-12-13-12~--| x2
|-----------------------|

bridge pt 2
|-----------------------------------|
|-----------------------------------|
|--7--------------------------------|
|-----------------------------------|
|--5------------3---3-/5-00-0-------| x6
|-----0-0-0-3-0---6------00-0-3~-1~-|
                         .. .
|---------------------|
|---------------------|
|--15-\-14-\-12-\-10--|
|---------------------|
|--13-\-12-\-10-\-8---|
|---------------------|


intro/chorus x2

bridge pt 1 x4


end on
|----------|
|----------|
|--10\12~--|
|----------|
|--8-\10~--|
|----------|
Добавлено: 27.03.2012
Другие материалы по этой песне:
  • Аккорды и текст

Страница создана 27.03.2012
http://primanota.ru/forever-never/never-chords.htm
Привет, Гость.
Предлагаем пройти революционный курс по гитаре.
Подарок от PrimaNota.Ru, забирай!