PrimaNota.ru - самый крупный в мире бесплатный архив песенных текстов, аккордов, табулатур и нот


Forever Never - Living Daydream - таба, видео

Регистрация Запомнить меня
Войти через:  Facebook Google Twitter Vk Yandex Mail.ru

Forever Never - Living Daydream - таба, видео

Печатать
Просмотров: 123
Уроки эстрадного вокала в Санкт-Петербурге
Tabbed by breadtruck
vegas_poker101@yahoo.co.uk

I have no idea what tuning this song is played in regularly, but I play it in 
F#,C#,F#,B,E,G#,C# (Low to high).
Basically it's C# standard with a low F# 7th string. This tab is for one guitar; 
harmonies not included.

Intro:
C#|------------------------------------------|
G#|------------------------------------------|
E |------------------------------------------|
B |-------3-33-3-33-3-33-5--3-33-3-33-3-33-5-|
F#|-------3-33-3-33-3-33-5--3-33-3-33-3-33-5-|
C#|----3--1-11-1-11-1-11-3--1-11-1-11-1-11-3-|
F#|-0----------------------------------------|

C#|------------------------------------------|
G#|------------------------------------------|
E |------------------------------------------|
B |------------------------------------------|
F#|-----7-----10------7-----10-----7------10-|
C#|------------------------------------------|
F#|-0-0---0-0----0-00---0-0----0-0---0-00----|

C#|----------------------------------------|
G#|----------------------------------------|
E |----------------------------------------|
B |----------------------------------------|
F#|------10----12----10-----10----12----10-|
C#|-8-88----88----88----888----88----88----|
F#|-8-88----88----88----888----88----88----|
      ..    ..    ..    ...    ..    ..

C#|------------------------------------------|
G#|------------------------------------------|
E |------------------------------------------|
B |----10----10------14----10----10-----10-9-|
F#|------------------------------------------|
C#|-00----00----000-----00----00----00-------|
F#|-00----00----000-----00----00----00-------|
    ..    ..    ...     ..    ..    ..

C#|--------------------------------------|
G#|--------------------------------------|
E |--------------------------------------|
B |-----------10-------------------9---9-|
F#|---10-12------12----10-12----12-------|
C#|--------------------------------------| x2
F#|-8-------8-------88-------88------8---|
    .       .       ..       ..      .
C#|---------------------------------------------------------------------|
G#|---------------------------------------------------------------------|
E |--------9---------------9-----------------9--------------------------|
B |-9-10-----10----9-10------10---10--9-10-----10----10-12--10---9------|
F#|------------------------------------------------------------------12-|
C#|---------------------------------------------------------------------|
F#|------0------00------00------0----------0------00------0----0---0----|
         .      ..      ..      .          .      ..      .    .   .

Verse
C#|------------------------------------|     C#|-------------------------------------|
G#|------------------------------------|     G#|-------------------------------------|
E |------------------------------------|     E |--------9-----------------9----------|
B |---------10-------------------9---9-|     B |-9-10-----10---10----10-9---10-------|
F#|-10-12------12----10-12----12-------|     F#|-------------------------------10-12-|
C#|------------------------------------| x2  C#|-------------------------------------|
F#|-------8-------88-------88------8---|     F#|------0------0----00-----------------|
          .       ..       ..      .                  .      .    ..
play 3 times


Chorus (strumming not shown)
C#|---------------------0----------0--------|
G#|-----------------------------------------|
E |-9--7--9--12/14--------------------------|
B |-x--x--x--x--x---12---12----12---12------|
F#|-7--5--7--10/12--10-----10--10------xxxx-|
C#|-----------------10---------10------xxxx-|
F#|-----------------10---------10------xxxx-|

C#|---------------------0-------------------|
G#|-----------------------------------------|
E |-9--7--9--12/14--------------------------|
B |-x--x--x--x--x---12---12----12-----------|
F#|-7--5--7--10/12--10-----10--10-----------|
C#|-----------------10---------10------6--5-|
F#|-----------------10---------10-----------|

Mini Breakdown
C#|----------------------------------------|
G#|----------------------------------------|
E |----------------------------------------|
B |----------------------------------------|
F#|----------------------------------------|
C#|----------------------------------------|
F#|-0-00000-00000-00000-3/10-0-00000-00000-|
    . ..... ..... .....      . ..... .....

Play verse x3

Play chorus


Collosal Breakdown
C#|----------------------------------------------|
G#|----------------------------------------------|
E |----------------------------------------------|
B |----------------------------------------------|
F#|----------------------------------------------|
C#|----------------------------------------------|
F#|-0-00000-00000-00000-3^3^-0-00000-00000-0003^-|
    . ..... ..... .....      . ..... ..... ...

C#|-------------------------------------------------------|
G#|-------------------------------------------------------|
E |-------------------------------------------------------|
B |-------------------------------------------------------|
F#|--------------------------------------7---7---8----7---|
C#|----------------------------------------8---8---10-----|
F#|-0-00000-00000-00000-3^3^-0-00000-000----------------0-|
    . ..... ..... .....      . ..... ...                .

C#|--------------------------------------------------------|
G#|--------------------------------------------------------|
E |--------------------------------------------------------|
B |--------------------------------------------[7]---------|
F#|-----------------------------------------------[7]------|
C#|--------------------------------------------------[7]---|
F#|-0-00000-00000-00000-3/10-0-00000-00000-000----------10-|
    . ..... ..... .....      . ..... ..... ...

C#|--------------------------------------------------------|
G#|--------------------------------------------------------|
E |---------------------12/14------------------------------|
B |---------------------x--x-------------------------------|
F#|---------------------10/12-------------7---7---8----7---|
C#|-----------------------------------------8---8---10-----|
F#|-0-00000-00000-00000-------0-00000-000----------------0-|
    . ..... ..... .....       . ..... ...                .
C#|----------------------------------|
G#|----------------------------------|
E |------------------9---------------|
B |----------------7-----------------|
F#|-------------------------------6^-|
C#|-------------------------------6^-|
F#|-0-00-0-0-0-0-0-----00--0-0000----|
    . .. . . . . .     ..  . ....
C#|---------------------------------------------|
G#|---------------------------------------------|
E |---------------------------------------------|
B |---------------------------------------------|
F#|------------------------7---7-----8---7-8/10-|
C#|--------------------------8---8--------------|
F#|-0-00000-0-0-0-0-3^3^-0---------0---0--------|
    . ..... . . . .

Outro (strumming not shown)
C#|---------------------------------------------------------|
G#|---------------------------------------------------------|
E |-2--5--4----------------------------2--5--7--9--10-------|
B |-2--5--4----------------------------2--5--7--9--10-5-/-7-|
F#|-0--3--2--0---7---7-----8---7-8/10--0--3--5--7--8--5-/-7-|
C#|-0--3--2--0-----8---8---------------0--3--5--7--8--3-/-5-|
F#|-0--3--2--0-0---------0---0---------0--3--5--7--8--------|

C#|--------------------------------------------------|
G#|--------------------------------------------------|
E |--------------------------------------------------|
B |---------------------5-7---------------------5----|
F#|-----------------------------------------------7--|
C#|--------------------------------------------------|
F#|-0-00000-00000-00000-----0-00000-00000-00000------|

C#|--------------------------------------------------|
G#|--------------------------------------------------|
E |--------------------------------------------------|
B |--------------------------------------------------|
F#|---------------------------7---7-----8---7--------|
C#|---------------------3-5-----8---8-----------7777-|
F#|-0-00000-00000-00000-----0---------0---0---0-7777-|
                                                ....
C#|-------------------------------------------------------------------------------|
G#|-------------------------------------------------------------------------------|
E |-------------------------------------------------------------------------------|
B |-------------------------------------------------------------------------------|
F#|--------------7^7^--------------------------------------7---7-----8---7-8/10---|
C#|-------------------------------5^5^-----------------------8---8----------------|
F#|-00-0-0-0-0-0-----00-0-0-0-0-0------00-0-0-0-0-0-3^3^-0---------0---0--------0-|
    .. . . . . .     .. . . . . .      .. . . . . .

And you're done!

Legend
   /  - slide up
   \  - slide down
   ^  - bend slightly
   x  - strum muted strings
   .  - dotted note/palm-mute indicator
   [] - natural harmonic
Добавлено: 03.10.2013
Вам также может быть интересно:
Другие материалы по этой песне:
  • Аккорды и текст

Страница создана 03.10.2013
http://primanota.ru/forever-never/living-daydream-chords.htm
Привет, Гость.
Предлагаем пройти революционный курс по гитаре.
Подарок от PrimaNota.Ru, забирай!