PrimaNota.ru - самый крупный в мире бесплатный архив песенных текстов, аккордов, табулатур и нот


Forever Never - Aporia - таба, видео

Регистрация Запомнить меня
Войти через:  Facebook Google Twitter Vk Yandex Mail.ru

Forever Never - Aporia - таба, видео

Печатать
Просмотров: 166
Forever Never - Aporia
Tabbed by Breadtruck
Tuning is Drop A (can be played on a 6 string, but I use a 7)

Intro
e|-----------------|
b|-----------------|
G|-----------------|
D|-----------------|
A|-----------------|
E|-----------------|  x6
A|-1-0-0-1-0-0-0-0-|
             . . .

Intro/Chorus
e|-----------------------|
b|-----------------------|
G|--------12-------------|
D|--10----x-----9----12--|
A|--x-----10----x----x---|
E|--8-----------7----10--|  x2
A|-----------------------|

e|----------------------------------|
b|----------------------------------|
G|--------------9----10--7----5-----|
D|--7----9--10--x----x---x----x--5--|
A|--x----x--x---7----8---5----3--x--|
E|--5----7--8--------------------3--|  x2
A|----------------------------------|

Pre-verse
e|-----------------------------|
b|-----------------------------|
G|-----------------------------|
D|-----------------------------|
A|-3-0-0-5-0-7-0-8-7-0-0-787---|
E|--------------------------10-| x3
A|-----------------------------|
     . .   .   .     . .   

e|-------------------|
b|-------------------|
G|-------------------|
D|---------------7*--|
A|-3-0-0-5-0-7-0-----|
E|-------------------|
A|-------------------|
     . .   .   .    

Verse
e|-----------------------------|
b|-----------------------------|
G|-----------------------------|
D|-----------------------------|
A|-3-0-0-5-0-7-0-8-7-0-0-787---|
E|--------------------------10-| x3
A|-----------------------------|
     . .   .   .     . . 
  
e|---------------------------------|
b|---------------------------------|
G|---------------------------------|
D|----------------10-----7---------|
A|-3-0-0-5--7--8-----8-7---8-7-----|
E|-----------------------------10--|
A|---------------------------------|
     . .         

repeat that once, then

e|-----------------------------|
b|-----------------------------|
G|-----------------------------|
D|-----------------------------|
A|-3-0-0-5-0-7-0-8-7-0-0-787---|
E|--------------------------10-| x2
A|-----------------------------|
     . .   .   .     . . 

e|---------------------| e|-----------------------|
b|---------------------| b|-----------------------|
G|--7---9-\-5---4--5---| G|--7---9-\-5---12-9-----|
D|--x---x---x---x--x---| D|--x---x---x---x--x-10--|
A|--5---7-\-3---2--3---| A|--5---7-\-3---10-7-x---|
E|---------------------| E|-------------------8---|
A|---------------------| A|-----------------------|
       1st time                 2nd time  


Play intro/chorus x2


Breakdown

e|-------------------------| e|-------------------------| 
b|-------------------------| b|-------------------------|
G|-------------------------| G|-------------------------|
D|-------------------------| D|-------------------------|
A|-------------------------| A|-------------------------|
E|---------------------1-1-| E|---------------------3-1-| 
A|-000000-000000-00000-1-1-| A|-000000-000000-00000-3-1-|
   ...... ...... .....          ...... ...... ..... 

e|-------------------------| e|-------------------------| 
b|-------------------------| b|-------------------------|
G|-------------------------| G|-------------------------|
D|-------------------------| D|-------------------------|
A|-------------------------| A|-------------------------|
E|---------------------1-4-| E|----------------1--4--3--| 
A|-000000-000000-00000-1-4-| A|-000000-000000--1--4--3--|
   ...... ...... .....          ...... ......  

repeat all that, then

e|------------------|
b|------------------|
G|------------------|
D|------------------|
A|------------------|
E|-1-0-0-1-0-0-0-0~-| 
A|-1-0-0-1-0-0-0-0~-|
   . . . . . . . .


Play verse

Play intro/chorus

Bridge

e|---------------------------------|
b|---------------------------------|
G|---------------------------------|
D|---------------------------------|
A|---------------------------------|
E|-5-----5-----5-----5-----5---5---| 
A|---5-5---5-5---5-5---5-5---5---5-|
     . .   . .   . .   . .   .   .

e|----------------------------|
b|----------------------------|
G|----------------------------|
D|----------------------------|
A|----------------------------|
E|-7-----7-----7---7-----7----| 
A|---5-5---5-5---5----5-----5-|
     . .   . .   .   

e|---------------------------------|
b|---------------------------------|
G|---------------------------------|
D|---------------------------------|
A|---------------------------------|
E|-8-----8-----8-----8-----8---8---| 
A|---5-5---5-5---5-5---5-5---5---5-|
     . .   . .   . .   . .   .   .

e|----------------------------|
b|----------------------------|
G|----------------------------|
D|----------------------------|
A|-5-----5-----5---5----------|
E|-----------------------7----| 
A|---5-5---5-5---5----5-----3-|
     . .   . .   .

then a lot of:
e|---------------|
b|---------------|
G|---------------|
D|---------------|
A|---------------| (Figure out the pattern yourself)
E|-1-0-0-1-0-0-0-| 
A|-1-0-0-1-0-0-0-|
   . . . . . . . 

Play intro/chorus

And you're done.
Добавлено: 16.07.2012
Другие материалы по этой песне:
  • Аккорды и текст

Страница создана 16.07.2012
http://primanota.ru/forever-never/aporia-chords.htm
Привет, Гость.
Предлагаем пройти революционный курс по гитаре.
Подарок от PrimaNota.Ru, забирай!