PrimaNota.ru - самый крупный в мире бесплатный архив песенных текстов, аккордов, табулатур и нот


Forever In Terror - The Chosen One - таба, видео

Регистрация Запомнить меня
Войти через:  Facebook Google Twitter Vk Yandex Mail.ru

Forever In Terror - The Chosen One - таба, видео

Печатать
Просмотров: 75
         Forever In Terror=The Chosen One(Intro) metal blade records(major)

7 string standard  b,e,a,d,g,b,e its true because i asked them on myspace

            http://www.fitmetal.com/

      e|-----------------------------------------------------------|
      b|-----------------------------------------------------------|
      g|-----------------------------------------------------------|
      d|-----------------------------------------------------------|
      a|-----------------------------------------------------------|
      e|----10-9-10---9---10---9---10-9-7-9------------------------|
      b|-0----------0---0----0---0---------------------------------|


      e|-----------------------------------------------------------|
      b|-----------------------------------------------------------|
      g|-----------------------------------------------------------|
      d|-----------------------------------------------------------|
      a|-----------------------------------------------------------|
      e|----10-9-10---9---10---9---10-9-7-9------------------------|
      b|-0----------0---0----0---0---------------------------------|
                    p   p    p   p


      e|-----------------------------------------------------------|
      b|-----------------------------------------------------------|
      g|-----------------------------------------------------------|
      d|-----------------------------------------------------------|
      a|-----------------------------------------------------------|
      e|----10-9-10---9---10---9---10-9-7-9------------------------|
      b|-8----------8---8----8---8---------------------------------|
                    p   p    p   p


      e|-----------------------------------------------------------|
      b|-----------------------------------------------------------|
      g|-----------------------------------------------------------|
      d|-----------------------------------------------------------|
      a|-----------------------------------------------------------|
      e|----10-9-10----9----12----10----12-10-9-10-----------------|
      b|-10---------10---10----10----10----------------------------|

       So you play this whole thing 2 times and that's the Intro for guitar one. I know
guitar 2 plays, i just didn't put it. And I know for shure they play 7 string, because i
them on myspace. So enjoy and please rate!  :] Oh and make sure you palm mute, I 
get it, listen to the song for palm muting.

              http://www.fitmetal.com/

      e|-----------------------------------------------------------|
      b|-----------------------------------------------------------|
      g|-----------------------------------------------------------|
      d|-----------------------------------------------------------|
      a|-----------------------------------------------------------|
      e|----10-9-10---9---10---9---10-9-7-9------------------------|
      b|-0----------0---0----0---0---------------------------------|


      e|-----------------------------------------------------------|
      b|-----------------------------------------------------------|
      g|-----------------------------------------------------------|
      d|-----------------------------------------------------------|
      a|-----------------------------------------------------------|
      e|----10-9-10---9---10---9---10-9-7-9------------------------|
      b|-0----------0---0----0---0---------------------------------|
                    p   p    p   p


      e|-----------------------------------------------------------|
      b|-----------------------------------------------------------|
      g|-----------------------------------------------------------|
      d|-----------------------------------------------------------|
      a|-----------------------------------------------------------|
      e|----10-9-10---9---10---9---10-9-7-9------------------------|
      b|-8----------8---8----8---8---------------------------------|
                    p   p    p   p


      e|-----------------------------------------------------------|
      b|-----------------------------------------------------------|
      g|-----------------------------------------------------------|
      d|-----------------------------------------------------------|
      a|-----------------------------------------------------------|
      e|----10-9-10----9----12----10----12-10-9-10-----------------|
      b|-10---------10---10----10----10----------------------------|

  to ultimate guitar, here is the adres: http://www.myspace.com/fitmetal/
 there are record label major, by metal blade records, so they should be on here.

       So you play this whole thing 2 times and that's the Intro for guitar one. I know
guitar 2 plays, i just didn't put it. And I know for shure they play 7 string, because i
them on myspace. So enjoy and please rate!  :] Oh and make sure you palm mute, I 
get it, listen to the song for palm muting.

                     to ultimate guitar, here is the adres: http://www.myspace.com/fitmetal/
 there are record label major, by metal blade records, so they should be on here.
Добавлено: 30.07.2012
Другие материалы по этой песне:

Страница создана 26.02.2012
http://primanota.ru/forever-in-terror/the-chosen-one-chords.htm
Привет, Гость.
Предлагаем пройти революционный курс по гитаре.
Подарок от PrimaNota.Ru, забирай!