PrimaNota.ru - самый крупный в мире бесплатный архив песенных текстов, аккордов, табулатур и нот


Forever Ends Here - Heres To The Night - бас-таба, видео

Регистрация Запомнить меня
Войти через:  Facebook Google Twitter Vk Yandex Mail.ru

Forever Ends Here - Heres To The Night - бас-таба, видео

Печатать
Просмотров: 85
INTRO
F#|----------------------------------------------------|
C#|----------------------------------------------------|
G#|----------------------------------------------------|
C#|-2~-------0~--------2~--------4~---6~---7~----------|

F#|----------------------------------------------------|
C#|----------------------------------------------------|
G#|----------------------------------------------------|
C#|-2222--2222---2/7-6---4444--4444---4/7-6------------|

F#|----------------------------------------------------|
C#|----------------------------------------------------|
G#|----------------------------------------------------|
C#|-2222--2222---2/7-6---444-666-77777--9999-----------|

F#|----------------------------------------------------|
C#|----------------------------------------------------|
G#|----------------------------------------------------|
C#|-222222222222-77-66--444444444444-77-66-------------|

F#|----------------------------------------------------|
C#|----------------------------------------------------|
G#|----------------------------------------------------|
C#|-222222222222-77-66------4~-----6~-----7~-----------|

VERSE 1 (bass comes in at 0:47)
F#|----------------------------------------------------|
C#|----------------------------------------------------|
G#|-----------------------------7-7-7-7----------------|
C#|-4-4-4-4-4-4-4-4--7-7-7-7---------------------------|

F#|----------------------------------------------------|
C#|----------------------------------------------------|
G#|----------------------------------------------------|
C#|-2222222222222222--7777777777777777---0~------------|

CHORUS
F#|----------------------------------------------------|
C#|----------------------------------------------------|
G#|----------------------0000000000000000--------------|
C#|-2222222222222222-----------------------------------|

F#|----------------------------------------------------|
C#|----------------------------------------------------|
G#|----------------------2222222200000000--------------|
C#|-2222222222222222-----------------------------------|

F#|----------------------------------------------------|
C#|----------------------------------------------------|
G#|-0000000000000000-----------------------------------|
C#|--------------------2222222222222222----------------|

F#|----------------------------------------------------|
C#|----------------------------------------------------|
G#|----------------------------------------------------|
C#|-0000000000000000--777777777------------------------|

VERSE 2
F#|--------------------------------------------------|
C#|--------------------------------------------------|
G#|--------------------------------------------------|
C#|-2~------------2~---------------------------------|

F#|----------------------------------------------------|
C#|------------------------------4h5p4-----------------|
G#|------------------555-555-555------5----------------|
C#|-222-222-222-222------------------------------------|

F#|----------------------------------------------------|
C#|----------------------------------------------------|
G#|-777-777-777-11h12p11\9--000-000-000-000------------|
C#|----------------------------------------------------|

F#|----------------------------------------------------|
C#|----------------------------------------------------|
G#|-----------------------------7-7-7-7----------------|
C#|-4-4-4-4-4-4-4-4--7-7-7-7---------------------------|

F#|----------------------------------------------------|
C#|----------------------------------------------------|
G#|----------------------------------------------------|
C#|-2220~-----7770~---00000000-0-0---------------------|

CHORUS
F#|----------------------------------------------------|
C#|----------------------------------------------------|
G#|----------------------0000000000000000--------------|
C#|-2222222222222222-----------------------------------|

F#|----------------------------------------------------|
C#|----------------------------------------------------|
G#|----------------------2222222200000000--------------|
C#|-2222222222222222-----------------------------------|

F#|----------------------------------------------------|
C#|----------------------------------------------------|
G#|-0000000000000000-----------------------------------|
C#|--------------------2222222222222222----------------|

F#|----------------------------------------------------|
C#|----------------------------------------------------|
G#|----------------------------------------------------|
C#|-0000000000000000--777777777------------------------|

BRIDGE
F#|----------------------------------------------------|
C#|----------------------------------------------------|
G#|----------------------------------------------------|
C#|-2220~-----7770~----2220~-----7770~-----------------|

F#|--------------------------------------------------|
C#|--------------------------------------------------|
G#|-----------------------5~------------0~-----------|
C#|-2~----------7~-----------------------------------|

F#|----------------------------------------------------|
C#|----------------------------------------------------|
G#|----------------------------------------------------|
C#|-2222222222222222-7777777777777777------------------|

F#|----------------------------------------------------|
C#|----------------------------------------------------|
G#|-5555555555555555-0~--------------------------------|
C#|----------------------------------------------------|

OUTRO
F#|----------------------------------------------------|
C#|----------------------------------------------------|
G#|----------------------------------------------------|
C#|-2222222222222222-7777777777777777------------------|

F#|----------------------------------------------------|
C#|----------------------------------------------------|
G#|----------------------------------------------------|
C#|-0000~-----7770~------------------------------------|

F#|----------------------------------------------------|
C#|----------------------------------------------------|
G#|----------------------------------------------------|
C#|-2222222222222222-7777777777777777------------------|

F#|----------------------------------------------------|
C#|----------------------------------------------------|
G#|----------------------------------------------------|
C#|-0000~-----7770~------------2~----------------------|

Any questions tweet me @mavendshere
Добавлено: 15.10.2013
Вам также может быть интересно:
Другие материалы по этой песне:
  • Аккорды и текст

Страница создана 15.10.2013
http://primanota.ru/forever-ends-here/heres-to-the-night-chords.htm
Привет, Гость.
Предлагаем пройти революционный курс по гитаре.
Подарок от PrimaNota.Ru, забирай!