PrimaNota.ru - самый крупный в мире бесплатный архив песенных текстов, аккордов, табулатур и нот


Forever Ends Here - Head In The Clouds - таба, бас-таба, видео

Регистрация Запомнить меня
Войти через:  Facebook Google Twitter Vk Yandex Mail.ru

Forever Ends Here - Head In The Clouds - таба, бас-таба, видео

Печатать
Просмотров: 62
INTRO
Guitar 1: Lead
D#|-------7-10p0----7p0-5p0-7p0-10p0--|
A#|-7p0-7-------10p0------------------|
F#|-----------------------------------|
C#|-----------------------------------|
G#|-----------------------------------|
C#|-----------------------------------|
                                           x2
D#|-------7-10p0----7p0-5p0-7p0--5p0--|
A#|-7p0-7-------10p0------------------|
F#|-----------------------------------|
C#|-----------------------------------|
G#|-----------------------------------|
C#|-----------------------------------|

Guitar 2: Rhythm 
D#|--------------------------------------|
A#|--------------------------------------|
F#|-44444444-44444444-22222222-7777-9999-|
C#|-44444444-22222222-00000000-5555-7777-|   x2
G#|-22222222-22222222-00000000-5555-7777-|
C#|----------22222222-00000000-5555-7777-|

VERSE 1
Guitar 1: Lead
D#|-7~-----------------------------------|
A#|--------------------------------------|
F#|--------------------------------------|
C#|--------------------------------------|
G#|--------------------------------------|
C#|--------------------------------------|

Guitar 2: Rhythm 
D#|--------------------------------------|
A#|--------------------------------------|
F#|-4~--7~----7---7---7---7-----9--------|
C#|-4~--7~--557-557-557-557--7~---9------|   
G#|-2~--5~--555-555-555-555--7~-----7----|
C#|---------555-555-555-555--7~----------|
PM-         xx  xx  xx  xx

D#|----------------------------------------|
A#|----------------------------------------|
F#|---44--4----77--7-----------------------|
C#|---44--4----77--7----55--5---77--7------| 
G#|-2222222--5555555----55--5---77--7------|
C#|-------------------5555555-7777777------|
PM- xx  xx   xx  xx   xx  xx  xx  xx

D#|----------------------------------------|
A#|----------------------------------------|
F#|---44--4----77--7---------------9~------|
C#|---44--4----77--7----55--5-7~------7~---|  
G#|-2222222--5555555----55--5-7~---------7~|
C#|-------------------5555555-7~-7~--------|
PM- xx  xx   xx  xx   xx  xx 

CHORUS
Guitar 1: Lead
D#|--------------------------------------|
A#|--------------------------------------|
F#|-7777777777777777-77777777-99999999---|
C#|-7777777777777777-55555555-77777777---|
G#|-5555555555555555-55555555-77777777---|
C#|------------------55555555-77777777---|
                                                x2
D#|----------------------------------------|
A#|----------------------------------------|
F#|-4444444444444444-------------2~2222222-|
C#|-4444444444444444-000*-000*-0-2~2222222-|
G#|-2222222222222222-000*-000*-0-0~0000000-|
C#|------------------000*-000*-0-----------|
PM-                  xxx  xxx

Guitar 2: Rhythm 
D#|--------------------------------------|
A#|--------------------------------------|
F#|-0000000000000000-77777777-99999999---|
C#|-0000000000000000-55555555-77777777---|
G#|-0000000000000000-55555555-77777777---|
C#|------------------55555555-77777777---|
                                                 x2
D#|----------------------------------------|
A#|----------------------------------------|
F#|-4444444444444444-------------2~2222222-|
C#|-4444444444444444-000*-000*-0-2~2222222-|
G#|-2222222222222222-000*-000*-0-0~0000000-|
C#|------------------000*-000*-0-----------|
PM-                  xxx  xxx

INSTRUMENTAL 
Guitar 1: Lead
D#|-------7-10p0----7p0-5p0-7p0-10p0--|
A#|-7p0-7-------10p0------------------|
F#|-----------------------------------|
C#|-----------------------------------|
G#|-----------------------------------|
C#|-----------------------------------|
                                           
D#|-------7-10p0-----7~---------------|
A#|-7p0-7-------10p0------------------|
F#|-----------------------------------|
C#|-----------------------------------|
G#|-----------------------------------|
C#|-----------------------------------|

Guitar 2: Rhythm 
D#|----------------------------------|
A#|----------------------------------|
F#|-4~-------------------------------|
C#|-4~-------------------------------|
G#|-2~-------------------------------|
C#|----------------------------------|

Verse 2
Guitar 1: Lead
Guitar 2: Rhythm
D#|----------------------------------|
A#|----------------------------------|
F#|-444~444~777~777~-----------------|
C#|-444~444~777~777~555~555~777~777~-| x2
G#|-222~222~555~555~555~555~777~777~-|
C#|-----------------555~555~777~777~-|
PM- xx  xx  xx  xx  xx  xx  xx  xx

D#|----------------------------------|
A#|----------------------------------|
F#|---------9------------------------|
C#|-9-11-12---12-11-9-11-------------| x4
G#|----------------------------------|
C#|----------------------------------|

D#|----------------------------------|
A#|----------------------------------|
F#|----------------------------------|
C#|-4p0-2p0-4p0-5p0-4p0-7~-----------|
G#|----------------------------------|
C#|----------------------------------|

Guitar 2: Rhythm
D#|-------------------------------------|
A#|-------------------------------------|
F#|-44444444-77777777-------------------|
C#|-44444444-77777777-55555555-77777777-|    x2
G#|-22222222-55555555-55555555-77777777-|
C#|-------------------55555555-77777777-|
PM- xxxxxxx  xxxxxxxx xxxxxxxx xxxxxxxx

D#|-----------------------------------|
A#|-----------------------------------|
F#|-4~44444444444444------------------|
C#|-4~44444444444444-5~55555555555555-|
G#|-2~22222222222222-5~55555555555555-|
C#|------------------5~55555555555555-|
PM-   xxxxxxxxxxxxxx   xxxxxxxxxxxxxx

D#|-----------------------------------|
A#|-----------------------------------|
F#|-----------------------------------|
C#|-2~22222222222222--0~--------------|
G#|-2~22222222222222--0~--------------|
C#|-2~22222222222222--0~--------------|
PM-   xxxxxxxxxxxxxx 


CHORUS
Guitar 1: Lead
D#|--------------------------------------|
A#|--------------------------------------|
F#|-7777777777777777-77777777-99999999---|
C#|-7777777777777777-55555555-77777777---|
G#|-5555555555555555-55555555-77777777---|
C#|------------------55555555-77777777---|
                                                x2
D#|----------------------------------------|
A#|----------------------------------------|
F#|-4444444444444444-------------2~2222222-|
C#|-4444444444444444-000*-000*-0-2~2222222-|
G#|-2222222222222222-000*-000*-0-0~0000000-|
C#|------------------000*-000*-0-----------|
PM-                  xxx  xxx

Guitar 2: Rhythm 
D#|--------------------------------------|
A#|--------------------------------------|
F#|-0000000000000000-77777777-99999999---|
C#|-0000000000000000-55555555-77777777---|
G#|-0000000000000000-55555555-77777777---|
C#|------------------55555555-77777777---|
                                                 x2
D#|----------------------------------------|
A#|----------------------------------------|
F#|-4444444444444444-------------2~2222222-|
C#|-4444444444444444-000*-000*-0-2~2222222-|
G#|-2222222222222222-000*-000*-0-0~0000000-|
C#|------------------000*-000*-0-----------|
PM-                  xxx  xxx

BRIDGE:1
Guitar 1: Lead
D#|--------------------------|
A#|--------------------------|
F#|---7-----7------9-----9---|
C#|-----7-----7------9-----9-| 
G#|-5------------7-----------|
C#|-------5------------7-----|

BRIDGE: 2
Guitar 1: Lead
D#|-----------------------------------|
A#|-----------------------------------|
F#|-7~77777777777777------------------|
C#|-7~77777777777777-5~55555555555555-|
G#|-5~55555555555555-5~55555555555555-|
C#|------------------5~55555555555555-|
PM-   xxxxxxxxxxxxxx   xxxxxxxxxxxxxx

D#|-----------------------------------|
A#|-----------------------------------|
F#|------------------22-22-22~--------|
C#|-2~22222222222222-22-22-22~--------|
G#|-2~22222222222222-00-00-00~--------|
C#|-2~22222222222222------------------|

D#|------------------------------------|
A#|------------------------------------|
F#|-4444444444444444----------22222222-|
C#|-4444444444444444-00000000-22222222-|
G#|-2222222222222222-00000000-00000000-|
C#|------------------00000000----------|     x2

D#|----------------------------------------|
A#|----------------------------------------|
F#|-4444444444444444-------------2~2222222-|
C#|-4444444444444444-000*-000*-0-2~2222222-|
G#|-2222222222222222-000*-000*-0-0~0000000-|
C#|------------------000*-000*-0-----------|
PM-                  xxx  xxx

D#|-------7-10p0------7~--------------|
A#|-7p0-7-------10p0------------------|
F#|-----------------------------------|
C#|-----------------------------------|
G#|-----------------------------------|
C#|-----------------------------------|

Guitar 2: Rhythm
D#|-----------------------------------|
A#|-----------------------------------|
F#|-7~77777777777777------------------|
C#|-7~77777777777777-5~55555555555555-|
G#|-5~55555555555555-5~55555555555555-|
C#|------------------5~55555555555555-|
PM-   xxxxxxxxxxxxxx   xxxxxxxxxxxxxx

D#|-----------------------------------|
A#|-----------------------------------|
F#|------------------22-22-22~--------|
C#|-2~22222222222222-22-22-22~--------|
G#|-2~22222222222222-00-00-00~--------|
C#|-2~22222222222222------------------|

D#|------------------------------------|
A#|------------------------------------|
F#|-4444444444444444----------22222222-|
C#|-4444444444444444-00000000-22222222-|
G#|-2222222222222222-00000000-00000000-|
C#|------------------00000000----------|     x2

D#|----------------------------------------|
A#|----------------------------------------|
F#|-4444444444444444-------------2~2222222-|
C#|-4444444444444444-000*-000*-0-2~2222222-|
G#|-2222222222222222-000*-000*-0-0~0000000-|
C#|------------------000*-000*-0-----------|
PM-                  xxx  xxx

D#|---------|
A#|---------|
F#|-4*------|
C#|-4*------|
G#|-2*------|
C#|---------|


CHORUS
Guitar 1: Lead
D#|--------------------------------------|
A#|--------------------------------------|
F#|-7777777777777777-77777777-99999999---|
C#|-7777777777777777-55555555-77777777---|
G#|-5555555555555555-55555555-77777777---|
C#|------------------55555555-77777777---|
                                                x2
D#|----------------------------------------|
A#|----------------------------------------|
F#|-4444444444444444-------------2~2222222-|
C#|-4444444444444444-000*-000*-0-2~2222222-|
G#|-2222222222222222-000*-000*-0-0~0000000-|
C#|------------------000*-000*-0-----------|
PM-                  xxx  xxx

Guitar 2: Rhythm 
D#|--------------------------------------|
A#|--------------------------------------|
F#|-0000000000000000-77777777-99999999---|
C#|-0000000000000000-55555555-77777777---|
G#|-0000000000000000-55555555-77777777---|
C#|------------------55555555-77777777---|
                                                 x2
D#|----------------------------------------|
A#|----------------------------------------|
F#|-4444444444444444-------------2~2222222-|
C#|-4444444444444444-000*-000*-0-2~2222222-|
G#|-2222222222222222-000*-000*-0-0~0000000-|
C#|------------------000*-000*-0-----------|
PM-                  xxx  xxx

OUTRO
Guitar 1: lead
D#|-----------------------------------|
A#|-----------------------------------|
F#|-4444444444444444-7777777777777777-|
C#|-4444444444444444-7777777777777777-| x2
G#|-2222222222222222-5555555555555555-|
C#|-----------------------------------|

D#|----------------------------------|
A#|----------------------------------|
F#|---------9------------------------|
C#|-9-11-12---12-11-9-11-------------|  x2
G#|----------------------------------|
C#|----------------------------------|

Guitar 2: Rhythm 
D#|-----------------------------------|
A#|-----------------------------------|
F#|-4444444444444444-7777777777777777-|
C#|-4444444444444444-7777777777777777-| x4
G#|-2222222222222222-5555555555555555-|
C#|-----------------------------------|

Both finish with
D#|----------------|
A#|----------------|
F#|-777*-77*-7~----|
C#|-777*-77*-7~----|
G#|-555*-55*-5~----|
C#|----------------|

Pull Off=p
Cut Off=*
Palm Mute=PM-xxx
Sustain=~
Добавлено: 12.09.2013
Другие материалы по этой песне:
  • Аккорды и текст

Страница создана 27.08.2013
http://primanota.ru/forever-ends-here/head-in-the-clouds-chords.htm
Привет, Гость.
Предлагаем пройти революционный курс по гитаре.
Подарок от PrimaNota.Ru, забирай!