PrimaNota.ru - самый крупный в мире бесплатный архив песенных текстов, аккордов, табулатур и нот


Forever Ends Here - Hard To Handle - бас-таба, видео

Регистрация Запомнить меня
Войти через:  Facebook Google Twitter Vk Yandex Mail.ru

Forever Ends Here - Hard To Handle - бас-таба, видео

Печатать
Просмотров: 126
Уроки эстрадного вокала в Санкт-Петербурге
INTRO
F#|----------------------------------------------------|    (Every note is played on the
C#|----------------------------------------------------|    off-beat/the same time as
G#|-5-5-5-5--0-0-0-0---------0-0-----------------------|    the snare)
C#|-------------------5-5-5-5-----5-5------------------|

VERSE 1
F#|----------------------------------------------------|
C#|----------------------------------------------------|
G#|-5-5-5-5--0-0-0-0---------0-0-----------------------|
C#|-------------------5-5-5-5-----5-5------------------|

PRE-CHORUS
F#|----------------------------------------------------|
C#|----------------------------------------------------|
G#|----------------------------------------------------|
C#|-2222222222222222-7777777777777777------------------|

CHORUS
F#|----------------------------------------------------|
C#|----------------------------------------------------|
G#|-5-5-55555--5-5-55555-------------------------------|
C#|-----------------------7-7-77777--5-5-55555---------|

F#|---------------------------------------|
C#|---------------------------------------|           Listen to the song for
G#|-2-2-222-5-5-55555---------------------|           timing here, might
C#|--------------------5-5-555-7-7-77777--|           be confusing

F#|--------------------------------------------------|
C#|--------------------------------------------------|
G#|--------------------------------------------------|
C#|-5-5-5-7------------------------------------------|

PRE-VERSE
F#|----------------------------------------------------|
C#|----------------------------------------------------|
G#|-5-5-5-5--0-0-0-0---------0-0-----------------------|
C#|-------------------5-5-5-5-----5-5------------------|

VERSE 2
F#|----------------------------------------------------|
C#|----------------------------------------------------|
G#|-5-555555--5-555555--0-000000--0-000000-------------|
C#|----------------------------------------------------|

F#|----------------------------------------------------|
C#|----------------------------------------------------|
G#|----------------------0-000000----------------------|
C#|-5-555555--5-555555------------5-555555-------------|

F#|----------------------------------------------------|
C#|----------------------------------------------------|
G#|-5-555555--5-555555--0-000000--0-000000-------------|
C#|----------------------------------------------------|

F#|----------------------------------------------------|
C#|----------------------------------------------------|
G#|----------------------0-000000----------------------|
C#|-5-555555--5-555555------------5-5-5-5--------------|

PRE-CHORUS
F#|----------------------------------------------------|
C#|----------------------------------------------------|
G#|----------------------------------------------------|
C#|-2222222222222222-7777777777777777------------------|

CHORUS
F#|----------------------------------------------------|
C#|----------------------------------------------------|
G#|-5-5-55555--5-5-55555-------------------------------|
C#|-----------------------7-7-77777--5-5-55555---------|

F#|----------------------------------------------------|
C#|----------------------------------------------------|
G#|-2-2-222-5-5-55555----------------------------------|
C#|--------------------5-5-555-7-7-77777---------------|

F#|--------------------------------------------------|
C#|--------------------------------------------------|
G#|--------------------------------------------------|
C#|-5-5-5-7------------------------------------------|

BREAKDOWN \m/ (Listen to the song for timing. It isn't to tricky)
F#|--------------------------------------------------|
C#|--------------------------------------------------|
G#|--------------------------------------------------|
C#|-0~----------------0------------------------------|

F#|----------------------------------------------------|
C#|----------------------------------------------------|
G#|----------------------------------------------------|
C#|-0--000-0-0--00-00-5p0-7p0--------------------------|

F#|----------------------------------------------------|
C#|----------------------------------------------------|
G#|----------------------------------------------------|
C#|-0--000-0-0--00-00-5p0-7p0--------------------------|

F#|----------------------------------------------------|
C#|----------------------------------------------------|
G#|----------------------------------------------------|
C#|-0--000-0-0--00-00-5p0-7p0--------------------------|

F#|----------------------------------------------------|
C#|----------------------------------------------------|
G#|----------------------------------------------------|
C#|-0--000-0-0--00-00-7777-5555------------------------|

BRIDGE/PRE-CHORUS
F#|----------------------------------------------------|
C#|----------------------------------------------------|
G#|----------------------------------------------------|
C#|-2222222222222222-7777777777777777------------------|

F#|----------------------------------------------------|
C#|----------------------------------------------------|
G#|----------------------------------------------------|
C#|-2222222222222222-7777777777777777------------------|

F#|----------------------------------------------------|
C#|----------------------------------------------------|
G#|----------------------------------------------------|
C#|-7~------5~--------2~-------------------------------|

CHORUS
F#|----------------------------------------------------|
C#|----------------------------------------------------|
G#|-5-5-55555--5-5-55555-------------------------------|
C#|-------------------------7--------------------------|

F#|----------------------------------------------------|
C#|----------------------------------------------------|
G#|-2-2-222-5-5-55555----------------------------------|
C#|--------------------5-5-555-7-7-77777---------------|

F#|----------------------------------------------------|
C#|----------------------------------------------------|
G#|----------------------------------------------------|
C#|-5-5-5-7--5-5-5-7--5-5-5-7--------------------------|

OUTRO
F#|----------------------------------------------------|
C#|----------------------------------------------------|
G#|----------------------------------------------------|
C#|-000-000-5-4-2-0------------------------------------|
Добавлено: 08.06.2013
Другие материалы по этой песне:
  • Аккорды и текст

Страница создана 08.06.2013
http://primanota.ru/forever-ends-here/hard-to-handle-chords.htm
Привет, Гость.
Предлагаем пройти революционный курс по гитаре.
Подарок от PrimaNota.Ru, забирай!