PrimaNota.ru - самый крупный в мире бесплатный архив песенных текстов, аккордов, табулатур и нот


Forever Came Calling - Contrition - таба, видео

Регистрация Запомнить меня
Войти через:  Facebook Google Twitter Vk Yandex Mail.ru

Forever Came Calling - Contrition - таба, видео

Печатать
Просмотров: 117
Уроки эстрадного вокала в Санкт-Петербурге
-------------------------------------------------------------------------------
                             Contrition - Forever Came Calling
-------------------------------------------------------------------------------
Tabbed by: Tim Lundin III
E-mail: timlundin33@gmail.com

Tuning: Standard or Drop D

This is a great interlude type of song and it's incredibly easy to play

e|---------------------------------------------------------------------------|
B|---------------------------------------------------------------------------|
G|-----11---------11---------8--------8-------------------------------------|
D|---9----9-----9----9-----9---9----9---9-----------------------------------|
A|-7---------7----------7---------7------------------------------------------|
E|---------------------------------------------------------------------------|

Optional lower octave way to play
e|---------------------------------------------------------------------------|
B|---------------------------------------------------------------------------|
G|---------------------------------------------------------------------------|
D|----4---------4---------1-------1------------------------------------------|
A|--2---2-----2---2-----2---2---2---2----------------------------------------|
E|-0--------0---------0-------0----------------------------------------------|


Lyrics
They're holding awnings in hell for sins we'll commit
Her figure is a glass from which I can't sip
(Sweat like sins, sweat likes sins)

I'm not quite sure about the background vocals, but I know the main lyrics are 99% positive.
************************************

| /   slide up
| \   slide down
| h   hammer-on
| p   pull-off
| ~   vibrato
| +   harmonic
| x   Mute note
| b   Bend
| pb  Pre-bend
| br  Bend release
| pbr Pre-bend release
| brb Bend release bend

************************************
Добавлено: 07.12.2015
Другие материалы по этой песне:
  • Аккорды и текст

Страница создана 07.12.2015
http://primanota.ru/forever-came-calling/contrition-chords.htm
Привет, Гость.
Предлагаем пройти революционный курс по гитаре.
Подарок от PrimaNota.Ru, забирай!