PrimaNota.ru - самый крупный в мире бесплатный архив песенных текстов, аккордов, табулатур и нот


Forest Sun - Morningbird - таба, видео

Регистрация Запомнить меня
Войти через:  Facebook Google Twitter Vk Yandex Mail.ru

Forest Sun - Morningbird - таба, видео

Печатать
Просмотров: 75
Уроки эстрадного вокала в Санкт-Петербурге
This is the riff played throughout the entire song. Some picking is done around it 
in the C chord.  You use the C chord shape while playing this so it's pretty easy. 

Capo 5

e|----------------------------------------|
B|----------------------------------------|
G|----------------------------------------|
D|---------0--2---------------------------|
A|---3--3-------------3--3--0-------------| 
E|-----------------------------3----------|

e|----------------------------------------|
B|----------------------------------------|
G|----------------------------------------|
D|---------0--2---------------------------|
A|---3--3-------------3--2--3-------------| 
E|-----------------------------3----------|

e|-------------------------------------------------------------|
B|-------------------------------------------------------------|
G|--0--0--2----------------------------------------------------|
D|-----------2------------------------------0--2----0--2--0----|
A|-------------------3--3--0-----3-----3--3------------------3-| 
E|----------------------------3--------------------------------|


If it's wrong, sorry. It's my first tab
Добавлено: 17.11.2013
Другие материалы по этой песне:
  • Аккорды и текст

Страница создана 17.11.2013
http://primanota.ru/forest-sun/morningbird-chords.htm
Привет, Гость.
Предлагаем пройти революционный курс по гитаре.
Подарок от PrimaNota.Ru, забирай!