PrimaNota.ru - самый крупный в мире бесплатный архив песенных текстов, аккордов, табулатур и нот


Foreigner - White Lie - текст песни, таба, видео

Регистрация Запомнить меня
Войти через:  Facebook Google Twitter Vk Yandex Mail.ru

Foreigner - White Lie - текст песни, таба, видео

Печатать
Просмотров: 187
Tabbed by: Plurior
Email: pluswolf@aol.com

Tuning: Standard



     A7sus4
e|--------------------|---------------------|
B|------3-----3-------|------3-----3--------|
G|----------------0---|-----------------0---|
D|----2-----2---------|----2-----2----------|
A|--0-----0-----0-----|--0-----0-----0------|
E|--------------------|---------------------|

     Bb6
e|--------------------|---------------------|
B|------3-----3-------|------3-----3--------|
G|----------------0---|-----------------0---|
D|----0-----0---------|----0-----0----------|
A|--1-----1-----1-----|--1-----1-----1------|
E|--------------------|---------------------|

     b#5                 Csus2
e|--------------------|---------------------|
B|------3-----3-------|------3-----3----3---|
G|----------------0---|-----------------2---|
D|----0-----0---------|----0-----0----------|
A|--2-----2-----2-----|--3-----3-----3------|
E|--------------------|---------------------|

      D Dsus4 D Dsus2
e|----2--2h3--2---0---|--------0-------0----|
B|----3---3---3---3---|----3-------3--------|
G|----2---2---2---2---|---------------------|
D|--0-----------------|---------------------|
A|--------------------|---------------------|
E|--------------------|---------------------|

      D Dsus4 D Dsus2
e|----2--2h3--2---0---|--------0-------0----|
B|----3---3---3---3---|----3-------3--------|
G|----2---2---2---2---|---------------------|
D|--0-----------------|---------------------|
A|--------------------|---------------------|
E|--------------------|---------------------|

      D Dsus4 D Dsus2
e|----2--2h3--2---0---|---------------------|
B|----3---3---3---3---|--------3---2---3----|
G|----2---2---2---2---|----------------2----|
D|--0-----------------|----------------0----|
A|--------------------|---------------------|
E|--------------------|---------------------|


e|---------------------|
B|-3---3-2h3-2-0-2-2h3-|
G|-2------2------------|
D|---------------------|
A|---------------------|
E|---------------------|

Now the refrain begins: One guitar plays the same (D, Dsus4, D, Dsus2) and another 
guitar begins to play Powerchords!

************************************

| /   slide up
| \   slide down
| h   hammer-on
| p   pull-off
| ~   vibrato
| +   harmonic
| x   Mute note
| b   Bend
| pb  Pre-bend
| br  Bend release
| pbr Pre-bend release
| brb Bend release bend

************************************
Добавлено: 08.03.2012
Другие материалы по этой песне:
  • Аккорды и текст

Страница создана 08.03.2012
http://primanota.ru/foreigner/white-lie-chords.htm
Привет, Гость.
Предлагаем пройти революционный курс по гитаре.
Подарок от PrimaNota.Ru, забирай!