PrimaNota.ru - самый крупный в мире бесплатный архив песенных текстов, аккордов, табулатур и нот


Foreigner - Seventeen - текст песни, таба, видео

Регистрация Запомнить меня
Войти через:  Facebook Google Twitter Vk Yandex Mail.ru

Foreigner - Seventeen - текст песни, таба, видео

Печатать
Просмотров: 182
Авторы: Lou Gramm, Mick Jones

     Hey, this is ryan here with my second guitar tab.  The song is "Seventeen" by 
on the album "Head Games" released in 1979. This was their 3rd album which made it to #5 on 
Billboard 200 Chart.

   This is the intro

----------------------------5-5-------------------------------5-5---|
---------------5--7--7-7----7-7-5----------------5--7--7-7----7-7-5-|
-6--6-6----6-6-5--7--7-7----7-7-5--6--6-6----6-6-5--7--7-7----7-7-5-|
-7--7-7----7-7-5--7--7-7----7-7-5--7--7-7----7-7-5--7--7-7----7-7-5-|
-7--7-7----7-7-3--5--5-5--------3--7--7-7----7-7-3--5--5-5--------3-|
-5--5-5----5-5---------------------5--5-5----5-5--------------------|

     This is the verse

          Late last night.........................................
----------------------------5-5-------------------------------5-5---|
---------------5--7--7-7----7-7-5----------------5--7--7-7----7-7-5-|
-6--6-6----6-6-5--7--7-7----7-7-5--6--6-6----6-6-5--7--7-7----7-7-5-|
-7--7-7----7-7-5--7--7-7----7-7-5--7--7-7----7-7-5--7--7-7----7-7-5-|
-7--7-7----7-7-3--5--5-5--------3--7--7-7----7-7-3--5--5-5--------3-|
-5--5-5----5-5---------------------5--5-5----5-5--------------------|


     The verse (labeled above) is played twice, but when the pre-chorus comes, you play 
little riff...


---------------------------------------------------------------------------|
---------------------------------------------------------------------------|
---------------------------------------------------------------------------|
---------------------------------------------------------------------------|
-0-0-3---3---3-0----0-0-3---3---3-0----0-0-3---3---3-0----0-0-3---3---3-0--|
-------3---2--------------3---2--------------3---2--------------3---2------|


     After that, you repeat what you've already played again and then go to the chorus

           You're just
  Seventeen          Seventeen.................................
-------------------------------------------------------------3~----|
-------------------------------------------------------------3~----|
-------------------------------------------------------------4~----|
-77777777/5555555-77777777/5555555-77777777/5555555-77777777-5~----|
-77777777/5555555-77777777/5555555-77777777/5555555-77777777-5~----|
-55555555/3333333-55555555/3333333-55555555/3333333-55555555-3~----|


     That's all I have for this song. Sorry, but I don't have the Solo or anything, all 
have is the main rhythm tracking. Have fun with this one. More tabs will be on the way!!!

                              From,
                                  Ryan D. K.
                                Classic Rock Fan


  "Remember this, don't stop rocking!"
Добавлено: 18.03.2012
Другие материалы по этой песне:
  • Аккорды и текст

Страница создана 18.03.2012
http://primanota.ru/foreigner/seventeen-chords.htm
Привет, Гость.
Предлагаем пройти революционный курс по гитаре.
Подарок от PrimaNota.Ru, забирай!