PrimaNota.ru - самый крупный в мире бесплатный архив песенных текстов, аккордов, табулатур и нот


Foreign Objects - Sci Fi Mirage - таба, видео

Регистрация Запомнить меня
Войти через:  Facebook Google Twitter Vk Yandex Mail.ru

Foreign Objects - Sci Fi Mirage - таба, видео

Печатать
Просмотров: 77
SCI FI MIRAGE
By: Foreign Objects
Tabbed By: Rico Fabello

Tuning: Half Step Down (Eb Ab Db Gb Bb eb)
(Lots of Chorus effect)



|-----------------------------------------------------|
|-----------------------------------------------------|
|------------6------------6------------6------------6-|
|-------5-5~---------5-5~---------5-5~---------5-5~---|
|---4-4----------4-4----------4-4----------4-4--------|
|-3------------3------------3------------3------------|

|--------------------------------|
|--------------------------------|
|--------------------------6-----|
|-5----------------------5-----5-|
|-5-------------4----4-4-----4---|
|-3--3-5h6p5h6--2--3-------------|
      \_______/
      fast trill

|---------------------------------------------------------------------|
|---------------------------------------------------------------------|
|------------6----------------6----------------6----------------6-----|
|-------/5-5-----5-------/5-5-----5-------/5-5-----5-------/5-5-----5-|
|---4-4--------4-----4-4--------4-----4-4--------4-----4-4--------4---|
|-3----------------3----------------3----------------3----------------|

|--------------------------------------------------------|
|--------------------------------------------------------|
|------------------------------------------------------6-|
|-5---------------------------5----------------------5---|
|-5-------------4--------/6-0-5-------------4----4-4-----|
|-3--3-5h6p5h6--2--3--3-------3--3-5h6p5h6--2--3---------|

Play That Twice then place this twice:

|-----------------------------------------------------------------|
|-----------------------------------------------------------------|
|-----------------------------------------------------------------|
|-----------------------------------------------------------------|
|---4-2-4---4-2-4---4-2-4---4-2-4---4-2-4---4-2-4---4-2-4---4-2-4-|
|-3-------3-------3-------3-------3-------3-------3-------3-------|

Then play this twice:

|--------------------------------------------------------|
|--------------------------------------------------------|
|------------------------------------------------------6-|
|-5---------------------------5----------------------5---|
|-5-------------4--------/6-0-5-------------4----4-4-----|
|-3--3-5h6p5h6--2--3--3-------3--3-5h6p5h6--2--3---------|

|---------------------------------|
|---------------------------------|
|---------------------------------|
|---------------------------------|
|---4-2-4---4-2-4---4-2-4---4-2-4-|
|-3-------3-------3-------3-------|
PM. . . . . . . . . . . . . . . .

|---------------------------------|
|---------------------------------|
|---6-4-6---6-4-6---6-4-6---6-4-6-|
|-5-5-3-5-5-5-3-5-5-5-3-5-5-5-3-5-|
|-4-4-2-4-4-4-2-4-4-4-2-4-4-4-2-4-|
|-3-------3-------3-------3-------|
PM. . . . . . . . . . . . . . . .
(^and with envelope filter^)

|-----------------------------------------------------------------|
|-----------------------------------------------------------------|
|-----------------------------------------------------------------|
|-----------------------------------------------------------------|
|---4-2-4---4-2-4---4-2-4---4-2-4---4-2-4---4-2-4---4-2-4---4-2-4-|
|-3-------3-------3-------3-------3-------3-------3-------3-------|

|-----------------------------------------------------------------|
|-----------------------------------------------------------------|
|---6-4-6---6-4-6---6-4-6---6-4-6---6-4-6---6-4-6---6-4-6---6-4-6-|
|-5-5-3-5-5-5-3-5-5-5-3-5-5-5-3-5-5-5-3-5-5-5-3-5-5-5-3-5-5-5-3-5-|
|-4-4-2-4-4-4-2-4-4-4-2-4-4-4-2-4-4-4-2-4-4-4-2-4-4-4-2-4-4-4-2-4-|
|-3-------3-------3-------3-------3-------3-------3-------3-------|
(^with envelope filter^)

Then play this twice:

|--------------------------------------------------------|
|--------------------------------------------------------|
|------------------------------------------------------6-|
|-5---------------------------5----------------------5---|
|-5-------------4--------/6-0-5-------------4----4-4-----|
|-3--3-5h6p5h6--2--3--3-------3--3-5h6p5h6--2--3---------|

*Rest (Drums and Bass)*

|---------------------------------------------------------------------|
|---------------------------------------------------------------------|
|---------------------------------------------------------------------|
|---664466--664466--664466--664466--664466--664466--664466--664466-6--|
|-55------55------55------55------55------55------55------55-------5--|
|---------------------------------------------------------------------|

|-----------------|
|-----------------|
|-----------------|
|-----------------|
|-4--6\4--/10-6\4-|
|-3--5\3--/9--5\3-|

Play that multiple times then play this:

|---------------------------------------------------------------------|
|---------------------------------------------------------------------|
|------------6----------------6----------------6----------------6-----|
|-------/5-5-----5-------/5-5-----5-------/5-5-----5-------/5-5-----5-|
|---4-4--------4-----4-4--------4-----4-4--------4-----4-4--------4---|
|-3----------------3----------------3----------------3----------------|

Then play this multiple times again:

|-----------------|
|-----------------|
|-----------------|
|-----------------|
|-4--6\4--/10-6\4-|
|-3--5\3--/9--5\3-|

Then Play this 19 times:

|---------------------------------|
|---------------------------------|
|---------------------------------|
|---------------------------------|
|---4-2-4---4-2-4---4-2-4---4-2-4-|
|-3-------3-------3-------3-------|

Then for the outro:

|--------------------------------------------------------------|
|--------------------------------------------------------------|
|--------------------------------------------------------------|
|--------------------------------------------------------------|
|---5-3-5---6-4-6---7-5-7---8-6-8---9-7-9---10-9-10----11-9-11-|
|-4-------5-------6-------7-------8-------9---------10---------|

|-------------------------------------------------------------------|
|-------------------------------------------------------------------|
|-------------------------------------------------------------------|
|-------------------------------------------------------------------|
|---10-9-10---9-7-9---8-6-8---7-5-7---6-4-6---5-3-5---4-2-4---4-2-4-|
|-9---------8-------7-------6-------5-------4-------3-------3-------|

|--------|
|--------|
|--------|
|--5-----|
|--4-----|
|--3-----|
Добавлено: 23.08.2013
Другие материалы по этой песне:
  • Аккорды и текст

Страница создана 23.08.2013
http://primanota.ru/foreign-objects/sci-fi-mirage-chords.htm
Привет, Гость.
Предлагаем пройти революционный курс по гитаре.
Подарок от PrimaNota.Ru, забирай!