PrimaNota.ru - самый крупный в мире бесплатный архив песенных текстов, аккордов, табулатур и нот


Foreign Objects - Genesis 12a - таба, бас-таба, видео

Регистрация Запомнить меня
Войти через:  Facebook Google Twitter Vk Yandex Mail.ru

Foreign Objects - Genesis 12a - таба, бас-таба, видео

Печатать
Просмотров: 88
Froeign Objects - Genesis 12a
Transcribed by: Colin Kemege
Email: socksandspoons@hotmail.com
Tuning: Standard

UPDATED AUGUST 1 2002

Riff 1   main x4
e:|---------------------------------------------------------------------|
B:|---------------------------------------------------------------------|
G:|---------------------------------------------------------------------|
D:|---------------------------------------------------------------------|
A:|-----------7/8\7/8-----------------------------------5/6\5/6---------|
E:|-----5--5--------------------------------------3--3------------------|
                       x2                                        x2

Riff 2 - somewhat muted when played x2

e:|------------------------------------------------------------------------------------------------------|
B:|------------------------------------------------------------------------------------------------------|
G:|------------------------------------------------------------------------------------------------------|
D:|-----------------------7---------5--------------------3-------2-----------------7----5----------------|
A:|----------------------------------------3-------3---------------------------------------------3-2-----|
E:|-----5---5---3---5---------3---------------5-------------5-------5---3---5---------3---5--5--------3--|

Play Riff2 x2 but a little heavier and no muting
Then play Riff2 x2 muted.

Riff 3
Part A
e:|----------------------------------------------------------------------------|
B:|----------------------------------------------------------------------------|
G:|----------------------------------------------------------------------------|
D:|----------------------------------------------------------------------------|
A:|-----------------------3---3---3------5------------------3---3---3------5---|
E:|------5---5---5---5------------------------5---5---5------------------------|

Part B
e:|-----------------------------------------------------------------------------|
B:|-----------------------------------------------------------------------------|
G:|-----------------------------------------------------------------------------|
D:|-----------------------------------------------------------------------------|
A:|-----------------------3---3---3------5-------------------3---3---3------5---|
E:|------3---3---3---3------------------------3---3---3-------------------------|

Part C
e:|-----------------------------------------------------------------------------|
B:|-----------------------------------------------------------------------------|
G:|-----------------------------------------------------------------------------|
D:|-----------------------------------------------------------------------------|
A:|-----------------------3---3---3------5------------------3---3---3------5----|
E:|------5---5---5---5------------------------5---5---5-------------------------|

Part D
e:|-----------------------------------------------------------------------------|
B:|-----------------------------------------------------------------------------|
G:|-----------------------------------------------------------------------------|
D:|-----------------------------------------------------------------------------|
A:|-----------------------3---3---3------5------------5---7-----5----3----------|
E:|------3---3---3---3------------------------3---3-----------------------------|


repeat Riff 3, 2 times

go back into Riff 2

then back to Riff 3 and repeat it 2 times

Riff 4
e:|-----------------------------------------------------------------------|
B:|-----------------------------------------------------------------------|
G:|--------------------------------------------------------4---------6----|
D:|-----------------------6---6---6------8--------------------------------|
A:|-----------------------------------------------------------------------|
E:|-----4---4---4---4--------------------------0---0---0------0---0-------|

Riff 4 continued

e:|----------------------------------------------------------------------------|
B:|----------------------------------------------------------------------------|
G:|----------------------------------------------------------------------------|
D:|-----------------------6---6---6------8------------------5---5---5-----6----|
A:|----4---4---4---4--------------------------6---6---6------------------------|
E:|----------------------------------------------------------------------------|
Добавлено: 01.12.2013
Другие материалы по этой песне:
  • Аккорды и текст

Страница создана 01.12.2013
http://primanota.ru/foreign-objects/genesis-12a-chords.htm
Привет, Гость.
Предлагаем пройти революционный курс по гитаре.
Подарок от PrimaNota.Ru, забирай!