PrimaNota.ru - самый крупный в мире бесплатный архив песенных текстов, аккордов, табулатур и нот


Foreign Objects - Destination Undefined - таба, видео

Регистрация Запомнить меня
Войти через:  Facebook Google Twitter Vk Yandex Mail.ru

Foreign Objects - Destination Undefined - таба, видео

Печатать
Просмотров: 82
Foreign Objects-"Destination Undefined"
Tuning: Standard, EADGBE
Collected and Edited by: TransientBlur, James Easter
Original tabs by: Colin Kemage, Rico, Solo by TransientBlur

Riff 1
|---------------------------------------------------------------------------|
|---------------------------------------------------------------------------|
|-------------------8-----------------------------------------------8-------|
|-------------6-------6---------------6-----5-----------------6-------6-----|
|-4-2--6--4-4---4-4-------4-3--5--4-4---4-4---3---4-2--6--4-4---4-4---------|
|-2-1--4------------------2-1--3------------------2-1--4----------------213-|
                                                                              
Riff 2
|-----------------------------------------------------------------------|
|-----------------------------------------------------------------------|
|---------------------------------------------------------------------5-|
|-----3-3/5-3---------------------3-------3-3/5-3---------------------5-|
|--------------5\3---3/5\3---3/5--3----------------5\3---3/5\3---3/5--3-|
|-3-6--------------6-------6------1---3-6--------------6-------6--------|


Riff 3
|------------------------------------------------------------------|
|------------------------------------------------------------------|
|------------------------------------------------------------------|
|------------------------11--11-11-11--------------------8--8-8--8-|
|-8--------8-------8------------------6-------6-------6------------|
|---6-6-6----6-6-6---6------------------4-4-4---4-4-4---4----------|


Harmony over Riff 3
|-------------------------------------------------------------------|
|-------------------------------------------------------------------|
|-10-------10-------10-----------------8-------8-------8------------|
|----8-8-8----8-8-8----8--11-11-11-11----6-6-6---6-6-6---6--8-8-8-8-|
|-------------------------------------------------------------------|
|-------------------------------------------------------------------|

Riff 4
|-------------------------------------------|
|-------------------------------------------|
|-------------------------------------------|
|---------------------6-----------------6-6-|
|---4-3-----6-4-3---6-x---4-3---6-4---3-4-x-|
|--------4--------4---4-------4-----4-----4-|


Riff 5
|----------------------------------------------------------------------------|
|----------------------------------------------------------------------------|
|-1010101010-----------88888--------------1010101010----------88888----------|
|-1010101010-111111----88888--888----------x-x-x-x-x-111111---xxxxx-888------|
|--8-8-8-8-8-111111----66666--888----------8-8-8-8-8--x-x-x---66666-xxx------|
|-------------9-9-9-----------666---------------------9-9-9---------666------|

Ending Solo

|--------------------------------------------------------------|
|--------------------------------------------------------------|
|--------------------------------------------------------------|
|----------------------6/8\6------------------------6h8--------|
|---8p-6-----6h8---------------8--6------------6h8-------------|
|----------9--------6------------------9-9--9------------------|

|---------------------------------|
|---------------------------------|
|-6h8-8-6-8^10^8--6---------------|
|-------------------8-8-8p6---6---|
|---------------------------8---8-|
|---------------------------------|

|----------------------------------------------|
|----------------------------------------------|
|----------------------------------------------|
|------------------------6h8-------------------|
|----6\4/6---6\4---6h8---------8-8-8--6---4--6-|
|----------------------------------------------|

|----------------------------------------------------------|
|----------------------------------------------------------|
|--------------------------5-------------------------------|
|-----------------6h8--6-------8--8-8p6--------------------|
|----------6h8-----------------------------8--6-------6----|
|---9--6--------------------------------------------9------|

|----------------------------------------|
|----------------------------------------|
|----------------------------------------|
|---------------------8p6----------------|
|-----6h8p6---------------8p6-----6----6-|
|--9---------9--6-------------9-----9----|

|------------------------------------------------------------------|
|------------------------------------------------------------------|
|--------------6-6-6-------------------------------------8-8-8-----|
|-------6h8-------------8p6------------------------6h8-------------|
|--6h8------------------------8p6-----6---6-----6h8----------------|
|----------------------------------9----------9--------------------|

Solo fades out

Song Order
Riff 1-Twice
Riff 2-Four times
Riff 3-Four times, Harmony on third and fourth 
Riff 4-Four times
Riff 2-Four times
Riff 5-Five times
Riff 3-Four times, Harmony on third and fourth 
Ending Solo
Добавлено: 10.09.2013
Другие материалы по этой песне:
  • Аккорды и текст

Страница создана 10.09.2013
http://primanota.ru/foreign-objects/destination-undefined-chords.htm
Привет, Гость.
Предлагаем пройти революционный курс по гитаре.
Подарок от PrimaNota.Ru, забирай!