PrimaNota.ru - самый крупный в мире бесплатный архив песенных текстов, аккордов, табулатур и нот


Force That Bind - Made Alive Again - таба, видео

Регистрация Запомнить меня
Войти через:  Facebook Google Twitter Vk Yandex Mail.ru

Force That Bind - Made Alive Again - таба, видео

Печатать
Просмотров: 70
Уроки эстрадного вокала в Санкт-Петербурге
Made Alive Again

by Force That Binds
http://www.forcethatbinds.com

Copyright:  2000 Force That Binds
Lyrics by: Casey J. Payne
Music by: Jim Blair, Jason Hannah, and Brent Jorgensen
Album: Force That Binds: As It Stands
Track Number: 1

Transcribed by: Jason Hannah
Submitted by: Jason Hannah

Guitar1 is played clean, with maybe a little reverb, and Guitar2 is played
with Distortion with the gain all the way up.  The solo is played out of the
same Distortion as Guitar2


Needed Chords:

Verse
Am     Asus2    Asus4   Em

-0-     -0-     -0-     -0-
-1-     -0-     -3-     -0-
-2-     -2-     -2-     -0-
-2-     -2-     -2-     -2-
-0-     -0-     -0-     -2-
---     ---     ---     -0-

Chorus
C       G       D       Am      Em              

-0-     -3-     -2-     -0-     -0-             
-1-     -0-     -3-     -1-     -0-     
-0-     -0-     -2-     -2-     -0-     
-2-     -0-     -0-     -2-     -2-     
-3-     -2-     ---     -0-     -2-     
---     -3-     ---     ---     -0-     

(Guitar2)
C5      G5      D5      A5

---     ---     ---     ---
---     ---     ---     ---
-5-     ---     -7-     ---     
-5-     -5-     -7-     -7-
-3-     -5-     -5-     -7-
---     -3-     ---     -5-
                           

                                             
Verse:  guitar 1

The guitar plays with a clean tone (or with slight chorus/reverb)
and follows this chord pattern:

Am  Asus2  Asus4  Am
Em  Asus2  Em  Asus2


Chorus

Guitar 1 still playing clean, plays the following chords

C  G  D Am
C  G  D
C  G  D Am
C  G  Em

While guitar 2 matches that with distorted Powerchords



Solo
Note: Rhythm plays thru Chorus and Verse
                                                                    
|-----------------------|----------------------|
|-----------------------|----------------------|
|-----------------------|-----------------5----|
|----------------5------|--7--------5h-7-------|
|--------5--7-----------|----------------------|
|--5--8-----------------|----------------------|


                                                                           
-----------------------|----5-------------------|-------------------------|
-----------------------|------------------------|-------------------------|
-----------------5--7b-|-------7r-5--7--5-------|-------------------------|
--7--------5h-7--------|-------------------7----|--5h-7h-5-----------5----|
-----------------------|------------------------|-----------7--5--7-------|
-----------------------|------------------------|-------------------------|


                                                                  
-------------------|-------------------------|-------------------|
-------------------|-------------------------|-------------------|
-------------------|--------5--7r---5--------|-------------------|
--7----------------|--5h-7-------------7--5--|--7----------------|
-------------------|-------------------------|-------------------|
-------------------|-------------------------|-------------------|


                                                                        
------------------------|-----------------------|----------------------|
------------------------|-----------------------|----------------------|
------------------------|-----------------------|--------5--7b---------|
--5h7h5-----------------|----------------5------|--5h-7----------------|
---------7--5----7------|--------5--7-----------|----------------------|
------------------------|--5--8-----------------|----------------------|


                                                                         
--5--------------------|-------------------------|-------5--------------|
-----------------------|-------------------------|----------------------|
-----7r-5--7--5--------|--5h-7h-5-----------5----|--7b------7r---5------|
-----------------------|-----------7--5--7-------|----------------------|
-----------------------|-------------------------|----------------------|
-----------------------|-------------------------|----------------------|


                                                                         
--------------------------|-------------------|-------------------------|
--------------------------|-------------------|-------------------------|
--7--5--------------------|-------------------|-------------------------|
--------7--5-----------5--|--7----------------|--5h-7h-5----------------|
--------------7--5--7-----|-------------------|-----------7--5h-7--5----|
--------------------------|-------------------|-------------------------|


                                                                      
-----------------------|----------------------|----------------------|
-----------------------|----------------------|----------------------|
-----------------------|--------5--7b---------|--7b---7b---7b---7b---|
----------------5------|--5h-7----------------|----------------------|
--------5--7-----------|----------------------|----------------------|
--5h-8-----------------|----------------------|----------------------|


                                                                            
--5----------------------|-----------------------|--8--5-------------------|
-------------------------|-----------------------|--------8--5-------------|
-----7r-5--7--5----------|--------5--7r-----5----|--------------7--5-------|
-----------------7--5----|--5h-7-----------------|--------------------7----|
-------------------------|-----------------------|-------------------------|
-------------------------|-----------------------|-------------------------|


                                                                               
------------------------|--------------------------|--------------------------|
------------------------|--------------------------|--------------------------|
--5h7h5-----------------|--7--5-----7--5-----7--5--|--7--5-----7--5-----7--5--|
---------7--5----7------|--------7--------7--------|--------7--------7--------|
------------------------|--------------------------|--------------------------|
------------------------|--------------------------|--------------------------|


                                                                       
------------------------|-------------------|--5----------------------|
------------------------|-------------------|-------------------------|
--7--5-----7----5--7----|--7b---------------|-----7r-5--7--5----------|
--------7---------------|-------------------|-----------------7--5----|
------------------------|-------------------|-------------------------|
------------------------|-------------------|-------------------------|


                                                                              
------------------------|----------------------|----------------------|
------------------------|----------------------|----------------------|
------------------------|----------------------|----------------------|
--5h7h5-----------------|----------------------|----------------------|
---------7--5-----------|----------------------|----------------------|
-----------------7------|--0----0----0----0----|--0----0----0----0----|


     
Добавлено: 09.10.2013
Другие материалы по этой песне:
  • Аккорды и текст

Страница создана 09.10.2013
http://primanota.ru/force-that-bind/made-alive-again-chords.htm
Привет, Гость.
Предлагаем пройти революционный курс по гитаре.
Подарок от PrimaNota.Ru, забирай!