PrimaNota.ru - самый крупный в мире бесплатный архив песенных текстов, аккордов, табулатур и нот


Forbidden - Undertaker - таба, видео

Регистрация Запомнить меня
Войти через:  Facebook Google Twitter Vk Yandex Mail.ru

Forbidden - Undertaker - таба, видео

Печатать
Просмотров: 162
Уроки эстрадного вокала в Санкт-Петербурге
Авторы музыки: Tim Calvert, Craig Locicero, Matt Camacho, Steve Jacobs, Russ Anderson
Авторы текста: Craig Locicero, Russ Anderson
Band- Forbidden
Song- Undertaker

Eb tuning (1/2 step down)

Drum/Bass intro

Fade in with:

Bb|-5-|

Riff 1                  x3                         x1
eb|--------------------|--------------------------|-------------------|
Bb|--------------------|--------------------------|-------------------|
Gb|--------------------|--------------------------|-------------------|
Db|---6--6------6/5--5-|-----5/4--4----2--3--5/4--|-------------------|
Ab|---4--4------4/3--3-|-----3/2--2----------3/2--|-10--------7-9-7-5-|
Eb|-0-4--4--0-0-4/3--3-|-0-0-3/2--2--0-------3/2--|-10--8h9p8-7-9-7-5-|

Riff 1a (Guitar 2 plays top notes)
eb|----------------------------------------------------------------|
Bb|----------------------------------------------------------------|
Gb|------4---------------------------------------------------------|
Db|-6------6--5---4------6--6------6/5--5------5/5--4----2--3--5/4-| x3.25
Ab|------2---------------4--4------4/3--3------3/3--2----------3/2-|
Eb|-4------4--3---2----0-4--4--0-0-4/3--3--0-0-3/3--2--0-------3/2-|

Riff 1
Riff 1a (after 2nd time, repeat mid-end part, then return to beginning); (repeat beginning part)

eb|-----------------------------------------------------------|
Bb|-----------------------------------------------------------|
Gb|------4--------4-------------------------------------------|
Db|-6------6--5-------6---12---11------------6---12---11/-6tm-|
Ab|-------------------4---10---9-------------4---10---9/------|
Eb|-------------------4---10---9-------------4---10---9/------|

                        x3                       x1
eb|--------------------|------------------------|-------------------|
Bb|--------------------|------------------------|-------------------|
Gb|--------------------|------------------------|-------------------|
Db|---6--6------12--12-|-----12/11-11---2--3----|-------------------|
Ab|---4--4------10--10-|-----10/9--9----------2-|-10--------7-9-7-5-|
Eb|-0-4--4--0-0-10--10-|-0-0-10/9--9--0---------|-10--8h9p8-7-9-7-5-|


eb|-------------------------------------------------------|
Bb|-------------------------------------------------------|
Gb|-------------------------------------------------------|
Db|-6----5----4----3----6----12----11---2--3--------------| x2
Ab|-4----3----2----1----4----10----11---------2-----------|
Eb|-4----3----2----1----4----10----9----------------------|

Repeat x4 under solo

eb|------------------------------------------------------------------------------------------------|
Bb|------------------------------------------------------------------------------------------------|
Gb|------------------------------------------------------------------------------------------------|
Db|-6-------6/5-5-------5/4-4-------4/3-3-------3\6-6-------6\12----------12/4-4-------4---2--3--4-| x3.75
Ab|-4-------4/3-3-------3/2-2-------2/1-1-------1\4-4-------4\10----------10/2-2-------2---------2-|
Eb|-4-4-4-4-4/3-3-3-3-3-3/2-2-2-2-2-2/1-1-1-1-1-1\4-4-4-4-4-4\10-10-10-10-10/2-2-2-2-2-2-2-------2-|


eb|-------------------|
Bb|-------------------|
Gb|-------------------|
Db|-------------------|
Ab|-10--------7-9-7-5-|
Eb|-10--8h9p8-7-9-7-5-|

Riff 1
Riff 1a
Riff 2
Riff 3
Добавлено: 21.06.2012
Другие материалы по этой песне:
  • Аккорды и текст

Страница создана 21.06.2012
http://primanota.ru/forbidden/undertaker-chords.htm
Привет, Гость.
Предлагаем пройти революционный курс по гитаре.
Подарок от PrimaNota.Ru, забирай!