PrimaNota.ru - самый крупный в мире бесплатный архив песенных текстов, аккордов, табулатур и нот


Forbidden - Through Eyes Of Glass - таба, видео

Регистрация Запомнить меня
Войти через:  Facebook Google Twitter Vk Yandex Mail.ru

Forbidden - Through Eyes Of Glass - таба, видео

Печатать
Просмотров: 102
Band- Forbidden
Song- Through Eyes Of Glass

Key
= after note = vibrato
^ after note = heavy vibrato
\ = slide down
/ = slide up
+ = tap
h = hammer
p = pull
n = natural harmonic
s = pinching harmonic (squeal)
* = tremolo pick
t = trill
b = bend
|-3-| = triplet

n number above the tab = play the first part then the first finishing part
			 play the first part a second time and then play the second finishing part
			 etc.

Riff 1

E ----------------------------------------------------------------------------------------------------------------|
B ----------------------------------------------------------------------------------------------------------------|
G ----------------------------------------------------------------------------------------------------------------|
D -------------------------------------------------8---7---5---7--------------------------------------------------|
A -----7-----5-----7-----5-----8-7-----7-----5-----8---7---5---7------7-----5-----7-----5-----8-7-----7-----5-----|
E -0-0---0-0---0-0---0-0---0-0-----0-0---0-0---0-0-6-0-5-0-3-0-5--0-0---0-0---0-0---0-0---0-0-----0-0---0-0---0-0-|

E ----------------|
B ----------------|
G ----------------|
D -8---8---7---7--|
A -8---8---7---7--|
E -6-0-6-0-5-0-5--|

Riff 2

E -----------------------------------------------------------------------------------------------|
B -----------------------------------------------------------------------------------------------|
G -----------------------------------------------------------------------------------------------|
D -6-----6-----6---7-----7-----7---5-----5-----5-----5-----s5====6-----6-----6---7-----7-----7---|
A ---4-4---4-4---4---4-4---4-4---4---4-4---4-4---4-4---4-4---------4-4---4-4---4---4-4---4-4---4-|
E -----------------------------------------------------------------------------------------------|

E -----------------------------------------------------------------------------------------------|
B -----------------------------------------------------------------------------------------------|
G -----------------------------------------------------------------------------------------------|
D -9-----9-----9-----9-----9---9---6-----6-----6---7-----7-----7---5-----5-----5-----5-----s5==--|
A ---6-6---6-6---6-6---6-6---6---6---4-4---4-4---4---4-4---4-4---4---4-4---4-4---4-4---4-4-------|
E -----------------------------------------------------------------------------------------------|

E -----------------------------------------------------------------------|
B -----------------------------------------------------------------------|
G -----------------------------------------------------------------------|
D -6-----6-----6---7-----7-----7---10-----10-----10-----10-----10---10---|
A ---4-4---4-4---4---4-4---4-4---4----7-7----7-7----7-7----7-7----7----7-|
E -----------------------------------------------------------------------|

Riff 2A

E ----------------------------------------------------------------------------------------------|
B ----------------------------------------------------------------------------------------------|
G ----------------------------------------------------------------------------------------------|
D -6-----6-----6---7-----7-----7---5-----5-----5-----5-----5====6-----6-----6---7-----7-----7---|
A ---4-4---4-4---4---4-4---4-4---4---4-4---4-4---4-4---4-4--------4-4---4-4---4---4-4---4-4---4-|
E ----------------------------------------------------------------------------------------------|

E ----------------------------------------------------------------------------------------------|
B ----------------------------------------------------------------------------------------------|
G ----------------------------------------------------------------------------------------------|
D ---------------------------------6-----6-----6---7-----7-----7---5-----5-----5-----5-----5==--|
A -6-----6-----6-----6-----6---6-----4-4---4-4---4---4-4---4-4---4---4-4---4-4---4-4---4-4------|
E ---7-7---7-7---7-7---7-7---7---7--------------------------------------------------------------|

E -------------------------------------------------------------------|
B -------------------------------------------------------------------|
G -------------------------------------------------------------------|
D -6-----6-----6---7-----7-----7-------------------------------------|
A ---4-4---4-4---4---4-4---4-4---4-7-----7-----7-----7-----7---7---7-|
E -----------------------------------8-8---8-8---8-8---8-8---8---8---|

Riff 2B

E ----------------------------------------------------------------------------------------------|
B ----------------------------------------------------------------------------------------------|
G ----------------------------------------------------------------------------------------------|
D -6-----6-----6---7-----7-----7---5-----5-----5-----5-----5====6-----6-----6---7-----7-----7---|
A ---4-4---4-4---4---4-4---4-4---4---4-4---4-4---4-4---4-4--------4-4---4-4---4---4-4---4-4---4-|
E ----------------------------------------------------------------------------------------------|

E ---------------------------------------------------------------------------------------------------------------|
B ---------------------------------9-----9-----9---10-----10-----10---8-----8-----8-----8-----8----9-----9-----9-|
G -----------------------------------6-----6----------6------6----------6-----6-----6-----6----------6-----6-----|
D -9-----9-----9-----9-----9---9-------6-----6---6------6------6----6-----6-----6-----6-----6----------6-----6---|
A ---6-6---6-6---6-6---6-6---6---6-------------------------------------------------------------------------------|
E ---------------------------------------------------------------------------------------------------------------|

E ----------------------8-----8-----8----------------|
B ---10-----10-----10-----5-----5-----5---5-----5----|
G ------6------6------6-----5-----5-----5---5-5------|
D -6------6------6-----------------------------------|
A ---------------------------------------------------|
E ---------------------------------------------------|


Riff 2C

E ----------------------------------------------------------------------------------------------|
B ----------------------------------------------------------------------------------------------|
G ----------------------------------------------------------------------------------------------|
D -6-----6-----6---7-----7-----7---5-----5-----5-----5-----5====6-----6-----6---7-----7-----7---|
A ---4-4---4-4---4---4-4---4-4---4---4-4---4-4---4-4---4-4--------4-4---4-4---4---4-4---4-4---4-|
E ----------------------------------------------------------------------------------------------|

E ----------------------------------------------------------------------------------------------|
B ----------------------------------------------------------------------------------------------|
G ----------------------------------------------------------------------------------------------|
D ---------------------------------6-----6-----6---7-----7-----7---5-----5-----5-----5-----5==--|
A -6-----6-----6-----6-----6---6-----4-4---4-4---4---4-4---4-4---4---4-4---4-4---4-4---4-4------|
E ---7-7---7-7---7-7---7-7---7---7--------------------------------------------------------------|

E -------------------------------------------------------------|
B -------------------------------------------------------------|
G -------------------------------------------------------------|
D -6-----6-----6---7-----7-----7---10---10---10---10---10--10--|
A ---4-4---4-4---4---4-4---4-4---4-10---10---10---10---10--10--|
E ---------------------------------8 ---8 ---8 ---8 ---8 --8 --

Riff 3

E --------------------------------------------------------------|
B --------------------------------------------------------------|
G -2------------------------------2-----------------------------|
D -2-----4-----4-----4------------2-----4-----5-----------------|
A -0-----4-----4-----4------------0-----4-----5-----------------|
E ---0-0-2-0-0-2-0-0-2--0-2-0-2-0---0-0-2-0-0-3---0-3-0-3-0-0-0-|

Riff 3A

E ---------------------------------|
B ---------------------------------|
G -2-----------------------------2-|
D -2-----4-----4-----4-----------2-|
A -0-----4-----4-----4-----------0-|
E ---0-0-2-0-0-2-0-0-2-0-2-0-2-0---|

Riff 3B

E ---------------------------------------------------------------|
B ---------------------------------------------------------------|
G -2------------------------------2------------------------------|
D -2-----4-----4-----4------------2-----3-----3-----3------------|
A -0-----4-----4-----4------------0-----3-----3-----3------------|
E ---0-0-2-0-0-2-0-0-2--0-2-0-2-0---0-0-1-0-0-1-0-0-1--0-1-0-1-0-|

Riff 4

E -----------------------------------------------------------------------------------------------------------|
B -----------------------------------------------------------------------------------------------------------|
G -----------------------------------------------------------------------------------------------------------|
D -4-------------------------------4-----------5-----5---5-4-----4-------------------------------4-----------|
A -------4-----3-----4-----5-4-----------4-----5-----5---5-4-2---------4-----3-----4-----5-4-----------4-----|
E ---2-2---2-2---2-2---2-2-----2-2---2-2---2-2-----3---3-------3---2-2---2-2---2-2---2-2-----2-2---2-2---2-2-|

E -------------------|
B -------------------|
G -------------------|
D -3-----3---3-4-----|
A -3-----3---3-4-----|
E -----0---0-----2-2-|

Riff 5

E -----------------------------------------------------------------------------------------------------------|
B -----------------------------------------------------------------------------------------------------------|
G ---------------------------------------------------------------4---4---4--7---7---7--3---3---3---3---3--3--|
D -4-----4-----4---7-----7-----7---6-----6-----6-----6-----6--6--4---4---4--7---7---7--3---3---3---3---3--3--|
A -4-----4-----4---7-----7-----7---6-----6-----6-----6-----6--6--2---2---2--5---5---5--1---1---1---1---1--1--|
E -2-2-2-2-2-2-2-2-5-5-5-5-5-5-5-5-4-4-4-4-4-4-4-4-4-4-4-4-4--4--2---2---2--5---5---5--1---1---1---1---1--1--|

Riff 6

E ---------------------------------------------------------------|
B ---------------------------------------------------------------|
G -5---------------5---------------5----------------------7-6-5--|
D -5---5---4-7-----5---5---4-7-----5---5---4-7---5----4---7-6-5--|
A -3---5---4-7-----3---5---4-7-----3---5---4-7---5----4---5-4-3--|
E ---0-3-0-2-5-0-0---0-3-0-2-5-0-0---0-3-0-2-5-0-3--0-2-0--------|

E ---------------------------------------------------------------|
B ---------------------------------------------------------------|
G -5---------------5---------------5-----------------------------|
D -5---5---4-7-----5---5---4-7-----5---5---4-7---5----4---4-3-2--|
A -3---5---4-7-----3---5---4-7-----3---5---4-7---5----4---5-4-3--|
E ---0-3-0-2-5-0-0---0-3-0-2-5-0-0---0-3-0-2-5-0-3--0-2-0--------|

Riff 7

E -------------------------------------------------------------------------------------------------------|
B -------------------------------------------------------------------------------------------------------|
G -4----4----------------------------4----4--------4-----------4----4----------------------------4----4--|
D -4----4----------2-4-5-4-2-0-------4----4----4-5---7-5-4-----4----4----------2-4-5-4-2-0-------4----4--|
A -2----2----2-3-5-------------3-2-0-2----2----------------7-5-2----2----2-3-5-------------3-2-0-2----2--|
E -------------------------------------------------------------------------------------------------------|
         |-3-| |-3-| |-3-| |-3-|                     |-3-| |-3-| |-3-| |-3-------------------------------|

E -----------------------------------------------------------------------------------------------------|
B -----------------------------------------------------------------------------------------------------|
G -----7-5-4-------------------------------------------------------------------------------------------|
D -4-5-------7-5-4-2---------------4----4----------------------------4----4--------4-----------4----4--|
A -------------------5-3-2---------4----4----------2-4-5-4-2-0-------4----4----4-5---7-5-4-----4----4--|
E -------------------------5-3-2-0-2----2----2-3-5-------------3-2-0-2----2----------------7-5-2----2--|
                         |-3-| |-3-| |-3-| |-3---------------------------------------------------------|

E --------------------------------------------------------------------|
B --------------------------------------------------------------------|
G ---------------------------------------7-5-4------------------------|
D -------------------------4----4----4-5-------7-5-4-2----------------|
A -------2-4-5-4-2-0-------4----4----------------------5-3-2----------|
E -2-3-5-------------3-2-0-2----2----------------------------5-3-2-0--|
   |-3-| |-3-| |-3-| |-3----------------------------------------------|

Riff 7A

E -------------------------------------------------------------------------------------------------------|
B -------------------------------------------------------------------------------------------------------|
G -4----4----------------------------4----4--------7-5-4-------4----4----------------------------4----4--|
D -4----4----------2-4-5-4-2-0-------4----4----4-5-------7-5-4-4----4----------2-4-5-4-2-0-------4----4--|
A -2----2----2-3-5-------------3-2-0-2----2--------------------2----2----2-3-5-------------3-2-0-2----2--|
E -------------------------------------------------------------------------------------------------------|
         |-3-| |-3-| |-3-| |-3-|                     |-3-| |-3-| |-3-| |-3-------------------------------|

E -----------------------------------------------------------------------------------------------------|
B -----7-5---------------------------------------------------------------------------------------------|
G ---------7-5-4---------------------------------------------------------------------------------------|
D -4-5-----------7-5-4-------------4----4----------------------------4----4--------7-5-4-------4----4--|
A ---------------------7-5-4-------4----4----------2-4-5-4-2-0-------4----4----4-5-------7-5-4-4----4--|
E ---------------------------7-5-3-2----2----2-3-5-------------3-2-0-2----2--------------------2----2--|
                         |-3-| |-3-| |-3-| |-3---------------------------------------------------------|

E ------------------------------------------------------------------------------------|
B ------------------------------------------------------------------------------------|
G -----------------------------------------19-17-16-----------------------------------|
D -------------------------4----4----16-17----------19-17-16-14-----------------------|
A -------2-4-5-4-2-0-------4----4-------------------------------17-15-14--------------|
E -2-3-5-------------3-2-0-2----2----------------------------------------17-15-14-12--|
   |-3-| |-3-| |-3-| |-3--------------------------------------------------------------|

Riff 8

E -----------------------------------|
B -----------------------------------|
G -----------------------------------|
D -4----------------3----------------|
A -4----------------3----------------|
E -2----------------1----------------|

Riff 8A

E ------------------------------------------------------------------------|
B -----------10-------12-------------------------9-------11---------------|
G ---11---------11-------11----11--------10--------10-------10----10------|
D ------11---------11-------11----11--------10--------10-------10----10---|
A -9-------9-------------------------9-8-------8------------------------8-|
E ------------------------------------------------------------------------|

Riff 8B

E -----------------------------------------------------------|
B -----------------------------------------------------------|
G -----------------------------------------------------------|
D -4------------------4------4--3------------------3---------|
A -4----------------------------3-------------------------3--|
E -2--2-2-2-2-2-2-2-2----2-2----1--1-1-1-1-1-1-1-1----1-1----|

Order

Riff 1 x 3
Riff 2/2A x 1
Riff 1 x 2
Riff 2/2A x 1
Riff 3 x 3
Riff 3A x 1
Riff 4 x 2
Riff 5 x 2
Riff 2/2A x 1
Riff 3 x 2
Riff 4 x 2
Riff 5 x 2
Riff 2/2A x 1
Riff 2B/2C x 1
Riff 6 x 1
Riff 7 x 1
Riff 8 x 2
Riff 8/8A x 2
Solo over Riff 8 x 2
Solo over Riff 8B x 6
Solo over Riff 8 x 2
Riff 8A x 4
Riff 8 x 2
Riff 3B x 3
Solo over Riff 3B x 4
Riff 4 x 2
Riff 2/2A x 1
Riff 3 x 3
Riff 3A x 1
Добавлено: 13.03.2012
Другие материалы по этой песне:

Страница создана 13.03.2012
http://primanota.ru/forbidden/through-eyes-of-glass-chords.htm
Привет, Гость.
Предлагаем пройти революционный курс по гитаре.
Подарок от PrimaNota.Ru, забирай!