PrimaNota.ru - самый крупный в мире бесплатный архив песенных текстов, аккордов, табулатур и нот


Forbidden - Infinite - текст песни, таба, перевод, видео

Регистрация Запомнить меня
Войти через:  Facebook Google Twitter Vk Yandex Mail.ru

Forbidden - Infinite - текст песни, таба, перевод, видео

Печатать
Просмотров: 171
Band- Forbidden
Song- Infinite

Standard E Tuning

Intro

Guitar1					    x2
e|-------------------------------------------------|
B|-------------------------------------------------|
G|-------------------------------------------------|
D|-5----------7---2---------------5----------7---2-|
A|-5----------7---2---------------5----------7---2-|
E|-3----------5---0---------------3----------5---0-|

Guitar 2 w/ wah effect
e|--------------------------------------------------------------|
B|-----------------------------------------------12--11---------|
G|-----9--11--12----------------------9--11--12-----------------|
D|-/9-------------13--------------/9----------------------------|
A|--------------------13--14--13-------------------------14--13-|
E|--------------------------------------------------------------|

e|-------------------------------------------------------16--15-|
B|-----------------------------------------------12--11---------|
G|-----9--11--12----------------------9--11--12-----------------|
D|-/9-------------13--------------/9----------------------------|
A|--------------------13--14--13--------------------------------|
E|--------------------------------------------------------------|

Riff 1							    x2
e|-------------------------------------------------------------------|
B|-------------------------------------------------------------------|
G|*------------------------------------------------------------------|
D|*-5---------------7---------------9---------------10---------------|
A|-------------------------------------------------------------------|
E|----0-000-0-0-000---0-000-0-0-000---0-000-0-0-000----0-000-0-0-000-|
      * *** * * ***   * *** * * ***   * *** * * ***    * *** * * ***

e|------------------------------------|
B|------------------------------------|
G|-7-------9-------10-------12-------*|
D|-----------------------------------*|
A|------------------------------------|
E|---0-000---0-000----0-000----0-000--|
     * ***   * ***    * ***    * ***

e|------------8-7-8-7---------------------------------|
B|-10-8-10-11---------8---7---5---4---3---1-----------|
G|----------------------9---6---4---3---2---1---------|
D|--------------------------------------------------2-|
A|--------------------------------------------2-----2-|
E|----------------------------------------------0-0-0-|
                                                * *
									 x4
e|------------------------------------------------------------------------|
B|------------------------------------------------------------------------|
G|--------------------------------------------------------------9---8-7---|
D|------------------------9---------10-----------------------10---9-----7-|
A|-0--//----------0-7-777---0-7-777----0-//----------0-7-777--------------|
E|-------0-0-//-0---------------------------0-0-//-0----------------------|
         * *        * ***     * ***         * *        * ***

Bridge
e|-----------------------------|
B|-----------------------------|
G|-----------------------------|
D|-2---3---7---3---------------|
A|-2---3---7---3---------1-----|
E|-0---1---5---1---0-2-0---3-2-|
		   * * *   * *

Riff 1							     x4
e|------------------------------------------------------------| skip last 2 notes
B|------------------------------------------------------------| on 4th time
G|------------------------------------------------------------|
D|-2--------------3--------------4--------------5------8------|
A|-2--------------1--------------2--------------3------6------|
E|-0--0-000-2-0-0----0-000-2-0-0----0-000-2-0-0----0-0----0-0-|
      * ***   * *    * ***   * *    * ***   * *    * *    * *

Riff 2				      				                 x2
e|--------------------------------------------------------------------------------|
B|--------------------------------------------------------------------------------|
G|-----5--------------8-----------------------------------------------------------|
D|-----------------------------------7--------------------------------------------|
A|-6-7------------6-7------------6-7-7----------6-7-------------------------------|
E|--------0-000-0--------0-000-0-----5--0-000-0-----4--4-444-4-6-5-1--1-111-1-3-1-|
          * *** *        * *** *        * *** * * *    * *** * * *    * *** * * *
Riff 2 Cont.
e|------------|
B|------------|
G|------------|
D|------------| skip this the second time
A|------------|
E|-0--0-000-0-|
      * *** *

Riff 3 x2
e|---------------------------------------------------------------|
B|---------------------------------------------------------------|
G|-----2-4-------------2-4---------------------------------------|
D|-----0-2-------------0-2-3-3-2-1-6--------------3--------------|
A|---------------------------------6--------------3------0-3-2---|
E|-1p0-----0-0-0-0-1p0-------------4--4-4-4-4-4-4-1--1-1-------2-|
           * * * *         * * * *    * * * * * *    * * * * * *

e|---------------------------------------------------------------|
B|---------------------------------------------------------------|
G|-----2-4-------------2-4---------------------------------------|
D|-----0-2-------------0-2-3-3-2-1-6--------------3--3-3-3-3-3-3-|
A|---------------------------------6--------------3--------------|
E|-1p0-----0-0-0-0-1p0-------------4--4-4-4-4-4-4-1--------------|
           * * * *         * * * *    * * * * * *    * * * * * *

Bridge x1
Riff 1 x4
Riff 2 x2
Riff 3 x2

Riff 4
e|-------------------------------------------------------------------|
B|-------------------------------------------------------------------|
G|-9-------8-----------------------9-------8-------------------------|
D|-9-------8-------5ah-----6ah-----9-------8-----------6ah-----------|
A|-7-------6---------3ah-----4ah---7-------6-------3ah-------0-5-6-7-|
E|---0-0-0---------------------------0-0-0---------------------------|
     * * *                           * * *                   * * * *

e|-------------------------------------------------------------------|
B|-------------------------------------------------------------------|
G|-9-------8-----------------------9-------8-------------------------|
D|-9-------8-------5ah-----6ah-----9-------8-----------6ah-----------|
A|-7-------6---------3ah-----4ah---7-------6-------3ah-------7-5-3---|
E|---0-0-0---------------------------0-0-0-------------------------3-|
     * * *                           * * *

Riff 5 x2
Guitar 1
e|---------------------------------------------------------------|
B|---------------------------------------------------------------|
G|-------------------------------------------------------------1-|
D|-----------------2-----3-----5-----------------2-4-2-3-2-1-2---|
A|---------2-------------------------------2---------------------|
E|-2p0-0-0-0-0-0-0---0-0---0-0---0-2p0-0-0-0-0-0-----------------|
       * *   * * *   * *   * *   *     * *   * * * * * * * * *

Guitar 2
e|---------------------------------------------------------------|
B|---------------------------------------------------------------|
G|-----------------1-----2-----4-----------------1-3-1-2-1-0-1-4-|
D|---------------------------------------------------------------|
A|---------2-------------------------------2---------------------|
E|-2p0-0-0-0-0-0-0---0-0---0-0---0-2p0-0-0-0-0-0-----------------|
       * *   * * *   * *   * *   *     * *   * * * * * * * * *

Alt. Ending
e|-------------|
B|-------------|
G|-------------|
D|-----------5-|
A|---2-1-----5-|
E|-3---------3-|


Solo Rhythm						       x6
e|--------------------------------------------------------------|
B|--------------------------------------------------------------|
G|---------9/---------------------------------------------------|
D|---------9/------5--5--8--8-----------9-----------------------|
A|---------7/------5--5--8--8-----------7-------8-----------2---|
E|-0-0-0-0---------3--3--6--6---0-000-0---0-0-0-6-------0-4---4-|
   * * * *                      * *** *   * * *         * * * *

Riff 5a 						        x2
e|---------------------------------------------------------------|
B|---------------------------------------------------------------|
G|-------------------------------------------------------------3-|
D|-----------------4-----5-----7-----------------4-6-4-5-4-3-4---|
A|---------4-------------------------------4---------------------|
E|-4p2-2-2---2-2-2---2-2---2-2-----4p2-2-2---2-2-----------------|
       * *   * * *   * *   * *         * *   * * * * * * * * *

Riff 5 x2
Riff 5a x2
Riff 5 x4 w Alt. Ending on 2 and:

Alt. Ending(a)
e|-------------------------|
B|-------------------------|
G|-------------------------|
D|-------------4-7---7-7-4-|
A|---2-1-------4-7---7-7-4-|
E|-3-----------2-5---5-5-2-|

Riff 6
Guitar 1
e|-------------------------------------------------------|
B|-------------------------------------------------------|
G|-------------------------------------------------------|
D|-------------------------------------------------------|
A|-------------------------------------------------------|
E|-2-2-4-2-2-2-2-2-2-2-4-2-2-2-2-2-2-2-4-2-2-2-2-2-2-2-4-|
   * *   * * * * * * *   * * * * * * *   * * * * * * *

Guitar 2
e|-------------------------------------------------------|
B|-------------------------------------------------------|
G|-------------------------------------------------------|
D|-------------------------------------------------------|
A|---------------------0---------------2---------------4-|
E|-----------------------2-2-2-2-2-2-2---2-2-2-2-2-2-2---|
                         * * * * * * *   * * * * * * *

Riff 6a
e|-----------------------------------------------------------------|
B|-----------------------------------------------------------------|
G|-----------------------------------------------------------------|
D|-7---7-7-4-----0---------------2---------------4---------------6-|
A|-7---7-7-4-------------------------------------------------------|
E|-5---5-5-2-2-2---2-2-2-2-2-2-2---2-2-2-2-2-2-2---2-2-2-2-2-2-2---|
             * *   * * * * * * *   * * * * * * *   * * * * * * *

e|-----------------------------------------------------------------|
B|-----------------------------------------------------------------|
G|---------------0---------------1---------------2---------------4-|
D|-7---7-7-4-------------------------------------------------------|
A|-7---7-7-4-------------------------------------------------------|
E|-5---5-5-2-2-2---2-2-2-2-2-2-2---2-2-2-2-2-2-2---2-2-2-2-2-2-2---|
             * *   * * * * * * *   * * * * * * *   * * * * * * *

e|-----------------------------------------------------------------|
B|-----------------------------------------------------------------|
G|-----------------------------------------------------------------|
D|-7---7-7-4-------------------------------------------------------|
A|-7---7-7-4-----0-------------------------------------------------|
E|-5---5-5-2-2-2---2-2-2-2-2-2-2-4-2-2-2-2-2-2-2-4-2-2-2-2-2-2-2-2-|
             * *   * * * * * * *   * * * * * * *   * * * * * * *

Outro x4
Guitar 1
e|--------------------------------------------------|
B|--------------------------------------------------|
G|--------------------------------------------------|
D|-7---7-7-4----------------------------------------|
A|-7---7-7-4----------------------------------------|
E|-5---5-5-2----------------------------------------|

Guitar 2
e|--------------------------------------------------|
B|--------------------------------------------------|
G|--------------------------------------------------|
D|--------------/8-------------\/9-------------\/11-|
A|--------------------------------------------------|
E|--------------------------------------------------|

Guitar 1
e|--------------------------------------------------|
B|--------------------------------------------------|
G|--------------------------------------------------|
D|-7---7-7-4----------------------------------------|
A|-7---7-7-4----------------------------------------|
E|-5---5-5-2----------------------------------------|

Guitar 2
e|--------------------------------------------------|
B|--------------------------------------------------|
G|--------------------------------------------------|
D|--------------/11------------\/12------??????????-|
A|--------------------------------------------------|
E|--------------------------------------------------|

Outro Riff B
e|-------------------------|
B|-------------------------|
G|-------------------------|
D|-4-7---7-2-4---2-4---5-4-|
A|-4-7---7-2-4---2-4---5-4-|
E|-2-5---5-0-2---0-2---3-2-|

Lead In To 'Out Of Body (Out OF Mind)'
e|---------------------------------------------------|
B|---------------------------------------------------|
G|---------------------------------------------------|
D|-7/4---7/4---4/5-----------------------------------|
A|-7/4---7/4---4/5-----------------------------------|
E|-5/2-0-5/2-0-2/3-----------------------------------|
Добавлено: 14.03.2012
Другие материалы по этой песне:
  • Аккорды и текст

Страница создана 26.02.2012
http://primanota.ru/forbidden/infinite-chords.htm
Привет, Гость.
Предлагаем пройти революционный курс по гитаре.
Подарок от PrimaNota.Ru, забирай!