PrimaNota.ru - самый крупный в мире бесплатный архив песенных текстов, аккордов, табулатур и нот


Forbidden - Distortion - текст песни, таба, видео

Регистрация Запомнить меня
Войти через:  Facebook Google Twitter Vk Yandex Mail.ru

Forbidden - Distortion - текст песни, таба, видео

Печатать
Просмотров: 170
Band- Forbidden
Song- Distortion

Key
= after note = vibrato
^ after note = heavy vibrato
\ = slide down
/ = slide up
+ = tap
h = hammer
p = pull
n = natural harmonic
s = pinching harmonic (squeal)
* = tremolo pick
t = trill
b = bend
|-3-| = triplet

n number above the tab = play the first part then the first finishing part
			 play the first part a second time and then play the second finishing part
			 etc.

Tune Down 1/2 Step

Fill 1

Eb ----------------------------|
Bb ----------------------------|
Gb -------10--------------9----|
Db -6--7--10------6----7--9----|
Ab -6--7--8 ------6----7--7----|
Eb -4--5----------4----5-------|

Riff 1

Eb ----------------------------------------------------------|
Bb ----------------------------------------------------------|
Gb ----------------------------------------------------------|
Db ----------------------------------------------------------|
Ab ----------------------------------------------------------|
Eb -0--0-0-0-0-0--0-0-0-0-0-0-0--0-0--0-0-0-0--0-0--0-0-0-0--|

Riff 1A

Eb ------------------------------------------------------------------------------|
Bb ------------------------------------------------------------------------------|
Gb ---------------------------------------------------------10--------------9----|
Db ---------------------------------------------------6--7--10------6----7--9----|
Ab ---------------------------------------------------6--7--8 ------6----7--7----|
Eb -0--0-0-0-0-0--0-0-0-0-0-0-0--0-0--0-0-0-0--0-0--0-4--5----------4----5-------|

Riff 1B

Eb ----------------------------------------------------------|
Bb ----------------------------------------------------------|
Gb ----------------------------------------------------------|
Db ----------------------------------------------------------|
Ab ---------------------------------------------------2-0-3--|
Eb -0--0-0-0-0-0--0-0-0-0-0-0-0--0-0--0-0-0-0--0-0--0--------|

Riff 1C

Eb ----------------------------------------------------------|
Bb ----------------------------------------------------------|
Gb ----------------------------------------------------------|
Db ----------------------------------------------------------|
Ab -7--7-7-7-7-7--7-7-7-7-7-7-7--7-7--7-7-7-7--7-7--7-7-5-8--|
Eb ----------------------------------------------------------|

Riff 1D

Eb ------------------------------------------------------------------------------------------------------|
Bb ------------------------------------------------------------------------------------------------------|
Gb ---------------------------------------------------------10--------------9----10--9-------------------|
Db ---------------------------------------------------6--7--10------6----7--9----10--9----7--7--6--3--5--|
Ab ---------------------------------------------------6--7--8 ------6----7--7----8 --7----7--7--6--3--5--|
Eb -0--0-0-0-0-0--0-0-0-0-0-0-0--0-0--0-0-0-0--0-0--0-4--5----------4----5----------------5--5--4--1--3--|

Riff 1E

Eb ------------------------------------------------------------------------------------------------------|
Bb ------------------------------------------------------------------------------------------------------|
Gb ---------------------------------------------------------10--------------9----10--9-------------------|
Db ---------------------------------------------------6--7--10------6----7--9----10--9----7--7--6--3--5--|
Ab -7--7-7-7-7-7--7-7-7-7-7-7-7--7-7--7-7-7-7--7-7--7-6--7--8 ------6----7--7----8 --7----7--7--6--3--5--|
Eb ---------------------------------------------------4--5----------4----5----------------5--5--4--1--3--|

Riff 1F

Eb -------------------------------------------------------------------|
Bb -------------------------------------------------------------------|
Gb -9--------------------------------8--------------------------------|
Db -------------------------------------------------------------------|
Ab -7--------------------------------6--------------------------------|
Eb -------------------------------------------------------------------|

Eb ------------------------------------------------------------------|
Bb ------------------------------------------------------------------|
Gb ------------------------------------------------------------------|
Db -8----------------------------------------------------------------|
Ab ------------------------------------------------------------------|
Eb -6----------------------------------------------------------------|

Riff 1G

Eb -------------------------------------------------------------------|
Bb -------------------------------------------------------------------|
Gb -9--------------------------------8--------------------------------|
Db -------------------------------------------------------------------|
Ab -7--------------------------------6--------------------------------|
Eb -------------------------------------------------------------------|

Eb ------------------------------------------------------------------------------|
Bb ------------------------------------------------------------------------------|
Gb --------------------------------------------3---------------------------------|
Db -8--------------------------------2----2----3--2----2--2----5--6--5--7--6--8--|
Ab ----------------------------------2----2----1--2----2--2----5--6--5--7--6--8--|
Eb -6--------------------------------0----0-------0----0--0----3--4--3--5--4--6--|

Riff 1H

Eb -------------------------------------------------------------------------------------------------|
Bb -------------------------------------------------------------------------------------------------|
Gb -------------------------------------------------------------------------------------------------|
Db -------------------------------------------------------------------------------------------------|
Ab -------------------------------------------------------------------------------------------------|
Eb -0-0-0-0-0-0-0-0-0-0-0-0-0-0-0-0-0-0-0-0-0-0-0-0-0-0-0-0-0-0-0-0-0-0-0-0-0-0-0-0-0-0-0-0-0-0-0-0-|

Eb ---------------------------------|
Bb ---------------------------------|
Gb ---------------------------------|
Db ---------------------------------|
Ab ---------------------------------|
Eb -0-0-0-0-0-0-0-0-0-0-0-0-0-0-0-0-|

Riff 1I

Eb -------------------------------------------------------------------------------------------------|
Bb -------------------------------------------------------------------------------------------------|
Gb -------------------------------------------------------------------------------------------------|
Db -------------------------------------------------------------------------------------------------|
Ab -------------------------------------------------------------------------------------------------|
Eb -0-0-0-0-0-0-0-0-0-0-0-0-0-0-0-0-0-0-0-0-0-0-0-0-0-0-0-0-0-0-0-0-0-0-0-0-0-0-0-0-0-0-0-0-0-0-0-0-|

Eb ---------------------------------------------|
Bb ---------------------------------------------|
Gb -----------3---------------------------------|
Db -2----2----3--2----2--2----5--6--5--7--6--8--|
Ab -2----2----1--2----2--2----5--6--5--7--6--8--|
Eb -0----0-------0----0--0----3--4--3--5--4--6--|

Riff 2

Eb ---------------------------------------------|
Bb ---------------------------------------------|
Gb ---------------------------------------------|
Db -2----2-------3-------5----5--6--5--7--6--8--|
Ab -2----2-------3-------5----5--6--5--7--6--8--|
Eb -0----0----0--1----0--3----3--4--3--5--4--6--|

Riff 2A

Eb ----------------------------------------------|
Bb ----------------------------------------------|
Gb -4----4-------5-------7----7--8--7--9--8--10--|
Db ----------------------------------------------|
Ab -2----2-------3-------5----5--6--5--7--6--8 --|
Eb ----------------------------------------------|

Riff 2B

Eb --------------------------------------------|
Bb --------------------------------------------|
Gb --------------------------------------------|
Db -2----2-------3-------5------6--5--7--6--8--|
Ab -2----2-------3-------5------6--5--7--6--8--|
Eb -0----0----0--1----0--3------4--3--5--4--6--|

Riff 2C

Eb ---------------------------------------------|
Bb ---------------------------------------------|
Gb -4----4-------5-------7------8--7--9--8--10--|
Db ---------------------------------------------|
Ab -2----2-------3-------5------6--5--7--6--8 --|
Eb ---------------------------------------------|

Riff 3

Eb --------------------------------------------|
Bb --------------------------------------------|
Gb --------------------------------------------|
Db -2----2-------3-------5------4--4--1--1--3--|
Ab -2----2-------3-------5------4--4--1--1--3--|
Eb -0----0----0--1----0--3------2--2--------1--|

Riff 3A

Eb ------------------------------------------|
Bb ------------------------------------------|
Gb -4----4------5------7------6--6--3--3--5--|
Db ------------------------------------------|
Ab -2----2------3------5------4--4--1--1--3--|
Eb ------------------------------------------|

Riff 3B

Eb -------------------------------------------|
Bb -------------------------------------------|
Gb -4----4------5------7----7--6--6--3--3--5--|
Db -------------------------------------------|
Ab -2----2------3------5----5--4--4--1--1--3--|
Eb -------------------------------------------|

Riff 3C

Eb ---------------------------------------------|
Bb ---------------------------------------------|
Gb ---------------------------------------------|
Db -2----2-------3-------5----5--4--4--1--1--3--|
Ab -2----2-------3-------5----5--4--4--1--1--3--|
Eb -0----0----0--1----0--3----3--2--2--------1--|

Riff 3D

Eb --------------------------------------------|
Bb --------------------------------------------|
Gb --------------------------------------------|
Db -2----2-------3-------5------4--4--3--1--3--|
Ab -2----2-------3-------5------4--4--3--1--3--|
Eb -0----0----0--1----0--3------2--2--1-----1--|

Fill 2

Eb ---------------------18----------------|
Bb -------17------17----------------------|
Gb -15------------------------------------|
Db ---------------------------------------|
Ab ---------------------------------------|
Eb ---------------------------------------|

Riff 4

Eb -----------------------------------------------------------------------------------|
Bb -----------------------------------------------------------------------------------|
Gb -----------3----------------------------------------3------------------------------|
Db -----------3----------------------------------------3------------------------------|
Ab -----------1----------------------------------------1------------------------------|
Eb -0----0-------0----0--0------0--0------0--0----0-------0----0--0------0--0------0--|

Eb -----------------------------------------------------------------------------------|
Bb -----------------------------------------------------------------------------------|
Gb -----------3----------------------------------------3------------------------------|
Db -----------3----------------------------------------3------------------------------|
Ab -----------1----------------------------------------1------------------------------|
Eb -0----0-------0----0--0------0--0------0--0----0-------0----0--0------0--0------0--|

Riff 4A

Eb -----------------------------------------------------------------------------------|
Bb -----------------------------------------------------------------------------------|
Gb -----------3----------------------------------------3------------------------------|
Db -----------3----------------------------------------3------------------------------|
Ab -----------1----------------------------------------1------------------------------|
Eb -0----0-------0----0--0------0--0------0--0----0-------0----0--0------0--0------0--|

Eb -----------------------------------------------------------------------------------------|
Bb -----------------------------------------------------------------------------------------|
Gb ------------3------------------------------------------3---------------------------------|
Db ------------3--------------------------------2----2----3--2----2--2----5--4--4--3--1--3--|
Ab ------------1--------------------------------2----2----1--2----2--2----5--4--4--3--1--3--|
Eb -0----0--0-----0----0--0------0--0--0--0--0--0----0-------0----0--0----3--2--2--1--------|

Riff 4B

Eb -------------------------------------------------------------------|
Bb -------------------------------------------------------------------|
Gb -9--------------------------------8--------------------------------|
Db -------------------------------------------------------------------|
Ab -7--------------------------------6--------------------------------|
Eb -------------------------------------------------------------------|

Eb ------------------------------------------------------------------------------|
Bb ------------------------------------------------------------------------------|
Gb --------------------------------------------3---------------------------------|
Db -8--------------------------------2----2----3--2----2--2----6--5--5--3--1--3--|
Ab ----------------------------------2----2----1--2----2--2----6--5--5--3--1--3--|
Eb -6--------------------------------0----0-------0----0--0----4--3--3--1-----1--|

Riff 4C

Eb ---------------------------------------------|
Bb ---------------------------------------------|
Gb -----------3---------------------------------|
Db -2----2----3--2----2--2----5--4--4--3--1--3--|
Ab -2----2----1--2----2--2----5--4--4--3--1--3--|
Eb -0----0-------0----0--0----3--2--2--1--------|

Riff 4D

Eb ---------------------------------------------|
Bb ---------------------------------------------|
Gb -----------3---------------------------------|
Db -2----2----3--2----2--2----5--6--5--7--6--8--|
Ab -2----2----1--2----2--2----5--6--5--7--6--8--|
Eb -0----0-------0----0--0----3--4--3--5--4--6--|

Order

Fill 1 x 1
Riff 1 x 3
Riff 1A x 1
Riff 1B/1C x 1
Riff 1D/1E x 1
Riff 1B x 1
Riff 1D x 1
Riff 1B/1C x 1
Riff 1D/1E x 1
Riff 1F/1H x 1
Riff 1G/1I x 1
Riff 2/2A x 3
Riff 2B/2C x 1
Riff 3/3A x 3
Riff 3B/3C x 1
Riff 3/3A x 3
Riff 2/2A x 1
Riff 3D x 3
Riff 2/Fill 2 x 4
Riff 3/3A x 7
Riff 2/2A x 1
Riff 3D x 3
Riff 2 x 1
Riff 1F/4 x 1
Riff 4A/4B x 3
Riff 4C x 2
Riff 4D x 1
Riff 2 x 4
Riff 3/3A x 7
Riff 2/2A x 1
Riff 3D x 3
Riff 2 x 1
Riff 2 x 4
Riff 2/Fill 2 x 1
Riff 2 x 1
Riff 2/Fill 2 x 1
Riff 2 x 1
Riff 2/Fill 2 x 3
Riff 4D/Fill 2 x 1
Добавлено: 09.07.2012
Другие материалы по этой песне:
  • Аккорды и текст

Страница создана 12.04.2012
http://primanota.ru/forbidden/distortion-chords.htm
Привет, Гость.
Предлагаем пройти революционный курс по гитаре.
Подарок от PrimaNota.Ru, забирай!