PrimaNota.ru - самый крупный в мире бесплатный архив песенных текстов, аккордов, табулатур и нот


For Today - Words Of Hope - таба, видео

Регистрация Запомнить меня
Войти через:  Facebook Google Twitter Vk Yandex Mail.ru

For Today - Words Of Hope - таба, видео

Печатать
Просмотров: 171
Уроки эстрадного вокала в Санкт-Петербурге
----------------------------------------------------------------------------
                          For Today - Words Of Hope
----------------------------------------------------------------------------


Tabed - funkyeyes


Tablature Legend
----------------
h - Hammer-On
p - Pull-Off
t - Tap
b - Bend
/ - Slide Up
\ - Slide Down


this is my first Tab i'v made
this is not the solo, i think its the Brige
thanks for lookin. please rate, comment and have fun =)


  Gtr 1
E|-13p9---------------|---------------------------|
B|------11------------|---------------------------|
G|---------10-11p10---|------11----13-11-10-11-10-|
D|------------------8-|-12-9----12----------------|
A|--------------------|---------------------------|
E|--------------------|---------------------------|


  Gtr 1
E|-14h15h16-13p9---------------|---------------------------|
B|---------------11------------|---------------------------|
G|------------------10-11p10---|------11----13-11-10-11-10-|
D|---------------------------8-|-12-9----12----------------|
A|-----------------------------|---------------------------|
E|-----------------------------|---------------------------|


  Gtr 1
E|-13p9---------------|---------------------------|
B|------11------------|---------------------------|
G|---------10-11p10---|------11----13-11-10-11-10-|
D|------------------8-|-12-9----12----------------|
A|--------------------|---------------------------|
E|--------------------|---------------------------|


  Gtr 1
E|-14h15h16-13p9---------------|---------------------------|
B|---------------11------------|---------------------------|
G|------------------10-11p10---|------11----13-11-10-11-10-|
D|---------------------------8-|-12-9----12----------------|
A|-----------------------------|---------------------------|
E|-----------------------------|---------------------------|


  Gtr 1
E|-13p9---------------|---------------------------|
B|------11------------|---------------------------|
G|---------10-11p10---|------11----13-11-10-11-10-|
D|------------------8-|-12-9----12----------------|
A|--------------------|---------------------------|
E|--------------------|---------------------------|


  Gtr 1
E|-14h15h16-13p9---------------|---------------------------|
B|---------------11------------|---------------------------|
G|------------------10-11p10---|------11----13-11-10-11-10-|
D|---------------------------8-|-12-9----12----------------|
A|-----------------------------|---------------------------|
E|-----------------------------|---------------------------|
Добавлено: 26.07.2012
Другие материалы по этой песне:

Страница создана 10.03.2012
http://primanota.ru/for-today/words-of-hope-chords.htm
Привет, Гость.
Предлагаем пройти революционный курс по гитаре.
Подарок от PrimaNota.Ru, забирай!