PrimaNota.ru - самый крупный в мире бесплатный архив песенных текстов, аккордов, табулатур и нот


For Today - Redemption - таба, видео

Регистрация Запомнить меня
Войти через:  Facebook Google Twitter Vk Yandex Mail.ru

For Today - Redemption - таба, видео

Печатать
Просмотров: 127
----------------------------------------------------------------------------
                             Redemption - For Today
----------------------------------------------------------------------------
Tabbed by: tommyguntimmy
Email: xtommyguntim@yahoo.com

Tuning: Drop Ceezy (CGCFAD)
Awesome song, awesome band
Please comment or something if you think of something that sounds better, this is 
not completely correct, probably 95% is right, im not perfect.

D|--------------------------------------------------|
A|-11----11----10----10-----------------------------|
F|---10----10----10----10---------------------------|
C|-----9-----9-----9-----9--8/10--------------------|
G|--------------------------6/8---------------------|
C|--------------------------------------------------|


D|------------------------------------13----13----13/15--------------------|
A|-11----11----10----10----10-13-11-10--11----11-------11-10-11-13-11-10---|
F|---10----10----10----10-----------------10----10----------------------10-|
C|-----9-----9-----9-----9-------------------------------------------------|
G|--------------------------------------(this whole thing 7 times)---------|
C|-------------------------------------------------------------------------|


D|----------------------------------------------------------|
A|-11----11----10----10----10-13-11-10-/13--11-10-11--------|
F|---10----10----10----10-----------------------------------|
C|-----9-----9-----9-----9----------------------------------|
G|----------------------------------------------------------|
C|----------------------------------------------------------|


D|------------6h10/11p8-----------------------12-10-8------|\
A|----------8-----------9-------------------9--------------| \
F|--------7---------------8---------------8----------------|  \
C|------8-------------------10---------10------------------|   \
G|-6h10------------------------11p7h11---------------------|    \
C|---------------------------------------------------------|     \
                                                                  x4-----|
                                                                          \ 
D|--------------------11'-10'-13'-11'-10'-11'-15'-13'-11'-10'-11-10/17---| |
A|---10'-8'-6'-11'-10'------------------------------------------------11-| |
F|-8'--------------------------------------------------------------------| |
C|-----------------------------------------------------------------------| |
G|-----------------------------------------------------------------------| |
C|-----------------------------------------------------------------------|/


D|------------6h10/11p8-----------------------12-10-8------|
A|----------8-----------9-------------------9--------------| 
F|--------7---------------8---------------8----------------| 
C|------8-------------------10---------10------------------|   
G|-6h10------------------------11p7h11---------------------|    
C|---------------------------------------------------------|

D|---------------------------------------------------|
A|---------------------------------------------------| 
F|---------------------------------------------------|  
C|-(The breakdown should be easy, just this and 0's)-|   
G|-5-------------------------------------------------|    
C|---3~----------------------------------------------|


D|------------------------|
A|-10/11------------------| 
F|------------------------|x4  
C|-------8-7-7h8p7--------|   
G|-----------------8------|    
C|------------------------|


D|------------------------|
A|-14h15------------------| 
F|------------------------|x22  
C|-------8-7-7h8p7--------|   
G|-----------------8------|    
C|------------------------|


D|------------------------|
A|------------------------| 
F|------------------------|  
C|--(breakdown, just 0's)-|   
G|-0----------------------|    
C|-0----------------------|


D|------------6h10/11p8-----------------------12-10-8------|\
A|----------8-----------9-------------------9--------------| \
F|--------7---------------8---------------8----------------|  \
C|------8-------------------10---------10------------------|   \
G|-6h10------------------------11p7h11---------------------|    \
C|---------------------------------------------------------|     \
                                                                  x4-----|
                                                                          \ 
D|--------------------11'-10'-13'-11'-10'-11'-15'-13'-11'-10'-11-10/17---| |
A|---10'-8'-6'-11'-10'------------------------------------------------11-| |
F|-8'--------------------------------------------------------------------| |
C|-----------------------------------------------------------------------| |
G|-----------------------------------------------------------------------| |
C|-----------------------------------------------------------------------|/


D|------------6h10/11p8-----------------------12-10-8------|
A|----------8-----------9-------------------9--------------| 
F|--------7---------------8---------------8----------------| 
C|------8-------------------10---------10------------------|   
G|-6h10------------------------11p7h11---------------------|    
C|---------------------------------------------------------|

Добавлено: 06.03.2012
Другие материалы по этой песне:

Страница создана 06.03.2012
http://primanota.ru/for-today/redemption-chords.htm
Привет, Гость.
Предлагаем пройти революционный курс по гитаре.
Подарок от PrimaNota.Ru, забирай!