PrimaNota.ru - самый крупный в мире бесплатный архив песенных текстов, аккордов, табулатур и нот


For Today - Nicodemus - таба, видео

Регистрация Запомнить меня
Войти через:  Facebook Google Twitter Vk Yandex Mail.ru

For Today - Nicodemus - таба, видео

Печатать
Просмотров: 129
Here is the intro... probably not near perfect but it is the only tab for this 
song so i hope it helps
Leave feedback please and let me know what you think


D:|--------------------------|
A:|--------------------------|
F:|-6h7p6--------------------|
C:|-------8p7p-------0--0--0-|
G:|-----------8h10p5-0--0--0-|
C:|------------------0--0--0-|

D:|--------------------------------------------------|
A:|--------------------------------------------------|
F:|-6h7p6------------6-7-9----6h7p6------------6-7-9-|
C:|-------8p7p----------------------8p7p-------------|
G:|-----------8h10p5--------------------8h10p5-------|
C:|--------------------------------------------------|

D:|-----------------------|
A:|-----------------------|
F:|----------------10-9-6-|
C:|----8p7p--8p7p---------|
G:|--------8-----8--------|
C:|-----------------------|

D:|--------------------------------------------------|
A:|--------------------------------------------------|
F:|-6h7p6------------6-7-9----6h7p6------------6-7-9-|
C:|-------8p7p----------------------8p7p-------------|
G:|-----------8h10p5--------------------8h10p5-------|
C:|--------------------------------------------------|

This part is probably far off because i don't sweep well but sounded close
D:|------------9h13p9---12h13p12-------|
A:|----------10-------10--------14-----|
F:|--------11---------------------14---|
C:|------11-------------------------15-|
G:|--9-12------------------------------|
C:|------------------------------------|

I'm pretty sure this is the harmony to the first guitar played along with
D:|-------------------------------------------------|
A:|-5h6p5----------5-6-8--5h6p5----------5-6-8------|
F:|------7p6p------------------7p6p-----------------|
C:|----------7h8p3-----------------7h8p3------------|
G:|-------------------------------------------------|
C:|-------------------------------------------------|

D:|--------------------|
A:|--------------------|
F:|-------------10-8-5-|
C:|-7p6p--7p6p---------|
G:|-----7-----7--------|
C:|--------------------|

D:|-------------------------------------------------|
A:|-5h6p5----------5-6-8--5h6p5----------5-6-8------|
F:|------7p6p------------------7p6p-----------------|
C:|----------7h8p3-----------------7h8p3------------|
G:|-------------------------------------------------|
C:|-------------------------------------------------|

D:|----------12-13-12--12h13p12----------|
A:|--------14--------14--------14--------|
F:|------13----------------------13------|
C:|-11h14--------------------------14p11-|
G:|--------------------------------------|
C:|--------------------------------------|
Добавлено: 09.04.2012
Вам также может быть интересно:
Другие материалы по этой песне:
  • Аккорды и текст

Страница создана 09.04.2012
http://primanota.ru/for-today/nicodemus-chords.htm
Привет, Гость.
Предлагаем пройти революционный курс по гитаре.
Подарок от PrimaNota.Ru, забирай!