PrimaNota.ru - самый крупный в мире бесплатный архив песенных текстов, аккордов, табулатур и нот


For Today - Intro - таба, бас-таба, видео

Регистрация Запомнить меня
Войти через:  Facebook Google Twitter Vk Yandex Mail.ru

For Today - Intro - таба, бас-таба, видео

Печатать
Просмотров: 299
Уроки эстрадного вокала в Санкт-Петербурге
this is the intro of for today's album, "Ekklesia". i also have the harminazation part 
anybody wants that... just email me at mellomello1993@yahoo.com


d-----------------------------------------------------------------|
a-----------13h15-------------------------------------------------|
f-----9h10--------14---10p9h10p9----------------------------------|
c---------------------------------12p10h12p10---------------------|
g---------------------------------------------8-------------------|
c-----------------------------------------------------------------|

d--------------------------------------13p12--------17p13-12------|
a----------13h15-----------------------------13p11----------------|
f----9h10----------14---10p9h10p9---------------------------------|
c-----------------------------------------------------------------|
g-----------------------------------------------------------------|
c-----------------------------------------------------------------|

d-----------------------------------------------------------------|
a---------13h15---------------------------------------------------|
f-----9h10-------14---10p9h10p9-----------------------------------|
c--------------------------------12p10h12p10----------------------|
g---------------------------------------------8-------------------|
c-----------------------------------------------------------------|

d-----------------------------------------------------------------|
a-----------------------------------------------------------------|
f----9h10--12h14-12-10-9-10-7-----------------repeat that 3 times-|
c-----------------------------------------------------------------|
g-----------------------------------------------------------------|
c-----------------------------------------------------------------|
Добавлено: 30.06.2012
Другие материалы по этой песне:

Страница создана 03.03.2012
http://primanota.ru/for-today/intro-chords.htm
Привет, Гость.
Предлагаем пройти революционный курс по гитаре.
Подарок от PrimaNota.Ru, забирай!