PrimaNota.ru - самый крупный в мире бесплатный архив песенных текстов, аккордов, табулатур и нот


For Today - Devastator - таба, видео

Регистрация Запомнить меня
Войти через:  Facebook Google Twitter Vk Yandex Mail.ru

For Today - Devastator - таба, видео

Печатать
Просмотров: 296
-------------------------------------------------------------------------------
                             Devastator- For Today
-------------------------------------------------------------------------------
Tabbed by:Ryan
Email:drspiderr123@hotmail.com

Tuning:Drop c

D|-----------------------------------------------------------------------------|
A|-----------------------------------------------------------------------------|
F|-----------------------------------------------------------------------------|
C|12-12-12-12-12-12-12-12-12-13-13-13-13-12-12-12-12-12-12-12-12-12-15-15-15---|
G|-----------------------------------------------------------------------------|
C|-----------------------------------------------------------------------------|

d|-----------------------------------------------------------------------------|
a|-----------------------------------------------------------------------------|
f|-----------------------------------------------------------------------------|
c|15-12-12-12-12-12-12-12-12-12-13-13-13-13-12-12-12-12-12-12-12-12-12-10------|
|
g|---------------------------------------------------------------------------|
c|---------------------------------------------------------------------------|
Repeat above 3 times
d|-----------------------------------------------------------------------------|
a|-----------------------------------------------------------------------------|
f|-----------------------------------------------------------------------------|
c|-0--00--0-0---1-0-------000---0-00-0--00-0-1-0--0--00--0-0---1-0--------00---|
|
g|-0--00--0-0---1-0-1-3-5-000---0-00-0--00-0-1-0--0--00--0-0---1-0-1-3-5--00-|
c|-0--00--0-0---1-0---3---000---0-00-0--00-0-1-0--0--00--0-0---1-0---3----00-|

d|---------------------------------------------------------------------------|
a|---------------------------------------------------------------------------|
f|---------------------------------------------------------------------------|
c|-1-1-1-4-4-----------------------------------------------------------------|
g|-1-1-1-4-4-----------------------------------------------------------------|
c|-1-1-1-4-4-----------------------------------------------------------------|

d|---------------------------------------------------------------------------|
a|---------------------------------------------------------------------------|
f|---------------------------------------------------------------------------|
c|-0--00--0-0---1-0-------000---0-00-0--00-0-1-0--0--00--0-0---1-0--------00-|
g|-0--00--0-0---1-0-1-3-5-000---0-00-0--00-0-1-0--0--00--0-0---1-0-1-3-5--00-|
c|-0--00--0-0---1-0---3---000---0-00-0--00-0-1-0--0--00--0-0---1-0---3----00-|


d|-----------------------------------------------------------------------------|
a|-----------------------------------------------------------------------------|
f|-----------------------------------------------------------------------------|
c|-15-15-15-11-11-11-14-14-1410101015-15-15-11-11-11-14-14-14-10-10-10---------|
g|-----------------------------------------------------------------------------|
c|-13-13-13-9-9-9-12-12-12-8-8-8-13-13-13-9-9-9-12-12-12-8-8-8-----------------|




************************************

| /   slide up
| \   slide down
| h   hammer-on
| p   pull-off
| ~   vibrato
| +   harmonic
| x   Mute note
| b   Bend
| pb  Pre-bend
| br  Bend release
| pbr Pre-bend release
| brb Bend release bend

************************************
Добавлено: 08.04.2012
Другие материалы по этой песне:

Страница создана 16.03.2012
http://primanota.ru/for-today/devastator-chords.htm
Привет, Гость.
Предлагаем пройти революционный курс по гитаре.
Подарок от PrimaNota.Ru, забирай!