PrimaNota.ru - самый крупный в мире бесплатный архив песенных текстов, аккордов, табулатур и нот


For The Fallen Dreams - Changes - таба, видео

Регистрация Запомнить меня
Войти через:  Facebook Google Twitter Vk Yandex Mail.ru

For The Fallen Dreams - Changes - таба, видео

Печатать
Просмотров: 81
Уроки эстрадного вокала в Санкт-Петербурге
this is my first tab, so it will suck and most likely be wrong. :c


tabbed by; nathan chan

lead guitar :

|-11-|
|-9--|
|-12-|
|-13-| <--- this is the chord used for the intro... i think. i might be wrong
|----|
|----|


(0:29 - 0:57)

|----15b16b15-------------------------------------------------|
|--------------16---------------------------------------------|
|------------------15/17--------------------------------------|
|-------------------------17--18--17--20----------------------|
|-------------------------------------------------------------|
|-------------------------------------------------------------|



|----15b16b15--------------------------------------------------|
|--------------16----------------------------------------------|
|------------------15/17---------------------------------------|
|--------------------------17--18--17--20--------18--20---22---|
|--------------------------------------------------------------|
|--------------------------------------------------------------|


|--15--16--15--------------------------------------------------|
|--------------16----------------------------------------------|
|------------------15/17---------------------------------------|
|--------------------------17--18--17--20--------18--17--------|
|--------------------------------------------------------18----|
|--------------------------------------------------------------|


|----15b16b15--------------------------------------------------|
|--------------16----------------------------------------------|
|------------------15/17---------------------------------------|
|--------------------------17--18--17--20-----18---------------|
|--------------------------------------------------------------|
|--------------------------------------------------------------|




(1:10 - 1:25)

the two 11's kinda.. connect. xD
|--11----------------------11----------|
|------9--8---------8h9p8--------------|
|------------8--------------------(x4)-|
|--------------------------------------|
|--------------------------------------|
|--------------------------------------|


outro:

(1:27 - 2:03)

|--11-------11-------11~-----------------------------------|
|------9p8------9p8----------------------------------------|
|----------------------------------------------------------|
|------------------------play this as it fades out---------|
|----------------------------------------------------------|
|----------------------------------------------------------|

:DD
Добавлено: 16.12.2013
Вам также может быть интересно:
Другие материалы по этой песне:
  • Аккорды и текст

Страница создана 31.10.2013
http://primanota.ru/for-the-fallen-dreams/changes-chords.htm
Привет, Гость.
Предлагаем пройти революционный курс по гитаре.
Подарок от PrimaNota.Ru, забирай!