PrimaNota.ru - самый крупный в мире бесплатный архив песенных текстов, аккордов, табулатур и нот


For Our Hero - Mister Prozac - таба, видео

Регистрация Запомнить меня
Войти через:  Facebook Google Twitter Vk Yandex Mail.ru

For Our Hero - Mister Prozac - таба, видео

Печатать
Просмотров: 115
-------------------------------------------------------------------------------
			     Mister Prozac - For Our Hero
			     www.myspace.com/forourhero
-------------------------------------------------------------------------------
Tabbed by:Dave Tran	
Email:daveman_01@hotmail.com

Tuning:Standard

Intro Riff
E||--------------------------|--------------------------|
B||--------------------------|--------------------------|
G||-----2--2-5-----5----5----|--------5-----------------|
D||------------------3----3--|--2--2-----2--------------|
A||--0----0----0-------------|--------------------------|
E||--------------------------|--------------------------|

E||--------------------------|--------------------------|
B||--------------------------|-----17-------------------|
G||-----2--2-5-----5----5----|-----19b------------------|
D||------------------3----3--|--------------------------|
A||--0----0----0-------------|--------------------------|
E||--------------------------|--------------------------|

Intro Rock Out Guitar 1
E||-----------------------------|----------------------------|
B||-----------------------------|----------------------------|
G||--------------12-----12------|----------------------------|
D||--2--2-----2--10-----10--10--|-----10-----10--9--9--9--9--|
A||--0--0-----0--------------8--|------8------8--7--7--7--7--|
E||-----------------------------|----------------------------|

Intro Rock Out Guitar 2
E||-----------------------------|----------------------------|
B||-----------------------------|----------------------------|
G||-----------------------------|----------------------------|
D||--2--2-----2--2--------2--3--|-----3-------3--2--2--2--2--|
A||--0--0-----0--0--------0--3--|-----3-------3--2--2--2--2--|
E||--------------------------1--|-----1-------1--0--0--0--0--|

Verse 1
E||-----------------------------|------------------------|
B||-----------------------------|------------------------|
G||-----------------------------|------------------------|
D||--2--2-----------------------|--2--2-----5-----5------|
A||--0--0-----------------------|--0--0-----3-----3------|
E||-----------------------------|------------------------|

Verse 1 lead riff
E||-----------------------------|------------------------------|
B||-----------------------------|------------------------------|
G||-----------------------------|------------------------------|
D||--10--7-7-9--7-----7-7-9--7--|--10--7-7-9--7--7-7-7-7-9--7--|
A||-----------------------------|------------------------------|
E||-----------------------------|------------------------------|

Prechorus
E||--------------------------|-----------------------|
B||--------------------------|-----------------------|
G||--------------------------|--7---------19b--------|
D||--3-----3-----3--3--3-----|--7--------------------|
A||--3-----3-----3--3--3-----|--5--------------------|
E||--1-----1-----1--1--1-----|-----------------------|

Chorus Chords
E||-----|-----|-----|-----|
B||-----|-----|-----|-----|
G||--2--|-----|--5--|-----|
D||--2--|--3--|--5--|--2--|
A||--0--|--3--|--3--|--2--|
E||-----|--1--|-----|--0--| 
				Hit each chord x 8
E||-----|-----|-----|-----|
B||-----|-----|-----|-----|
G||--2--|-----|--5--|-----|
D||--2--|--3--|--5--|--5--|
A||--0--|--3--|--3--|--5--|
E||-----|--1--|-----|--3--|

Post Chorus 1
E||----------------------------------|
B||----------------------------------|
G||----------------------------------|
D||--3----3----3--5-----7------------|
A||--3----3----3--5-----7------------|
E||--1----1----1--3-----5------------| x 2

Verse 2
E||---------------------------------|
B||---------------------------------|
G||---------------------------------|
D||--2------------------------------|
A||--0----3----5--------------------|
E||---------------------------------|  x 2

     PM PM PM PM PM PM PM PM    PM PM PM PM PM PM PM PM  
E||--------------------------|--------------------------|
B||--------------------------|--------------------------|
G||--------------------------|--------------------------|
D||--2--2--2--2--2--2--2--2--|--2--2--2--2--2--2--2--2--|
A||--0--0--0--0--0--0--0--0--|--0--0--0--0--0--0--0--0--|
E||--------------------------|--------------------------|


     PM PM PM PM PM PM PM PM    PM PM PM PM PM PM PM PM  
E||--------------------------|--------------------------|
B||--------------------------|--------------------------|
G||--------------------------|--------------------------|
D||--5--5--5--5--5--5--5--5--|--7--7--7--7--7--7--7--7--|
A||--3--3--3--3--3--3--3--3--|--5--5--5--5--5--5--5--5--|
E||--------------------------|--------------------------|

Prechorus as Prechorus 1

Chorus 2 as chorus 1

Whoa oh bit
E||--------------------------|--------------------------|
B||--------------------------|--------------------------|
G||-----2--------5-----5-----|-----5--------------4-----|
D||-----------------------3--|-----------3--2--2-----2--|
A||--0--------0--------------|--------------------------|
E||--------------------------|--------------------------|  x 3

E||--------------------------|--------------------------|
B||--------------------------|--------------------------|
G||-----2--------5-----5-----|--------------------------|
D||-----------------------3--|--------------------------|
A||--0--------0--------------|--------------------------|
E||--------------------------|--------------------------|

Bridge Rhythm
E||--------------------------|--------------------------|
B||--------------------------|--------------------------|
G||--2--2--2--2--2--2--2--2--|--------------------------|
D||--2--2--2--2--2--2--2--2--|--3--3--3--3--3--3--3--3--|
A||--0--0--0--0--0--0--0--0--|--3--3--3--3--3--3--3--3--|
E||--------------------------|--1--1--1--1--1--1--1--1--|

E||--------------------------|--------------------------|
B||--------------------------|--------------------------|
G||--5--5--5--5--5--5--5--5--|--------------------------|
D||--5--5--5--5--5--5--5--5--|--2--2--2--2--2--2--2--2--|
A||--3--3--3--3--3--3--3--3--|--2--2--2--2--2--2--2--2--|
E||--------------------------|--0--0--0--0--0--0--0--0--|

E||--------------------------|--------------------------|
B||--------------------------|--------------------------|
G||--2--2--2--2--2--2--2--2--|--------------------------|
D||--2--2--2--2--2--2--2--2--|--3--3--3--3--3--3--3--3--|
A||--0--0--0--0--0--0--0--0--|--3--3--3--3--3--3--3--3--|
E||--------------------------|--1--1--1--1--1--1--1--1--|

E||--------------------------|--------------------------|-------------------------|
B||--------------------------|--------------------------|-------------------------|
G||--5--5--5--5--5--5--5--5--|--------------------------|-------------------------|
D||--5--5--5--5--5--5--5--5--|--5--5--5--5--5--5--5--5--|--3-----3-----3--3--3----|
A||--3--3--3--3--3--3--3--3--|--5--5--5--5--5--5--5--5--|--3-----3-----3--3--3----|
E||--------------------------|--3--3--3--3--3--3--3--3--|--1-----1-----1--1--1----|
   
E||-------------------------|--------------------------|--------------------------|
B||-------------------------|--------------------------|--------------------------|
G||--7-----7-----7--7--7----|--------------------------|--------------------------|
D||--7-----7-----7--7--7----|--7--7--7--7--7--7--7--7--|--7--7--7--7--7--7--7--7--|
A||--5-----5-----5--5--5----|--7--7--7--7--7--7--7--7--|--7--7--7--7--7--7--7--7--|
E||-------------------------|--5--5--5--5--5--5--5--5--|--5--5--5--5--5--5--5--5--|

E||-------------------------|--------------------------|--------------------------|
B||-------------------------|--------------------------|--------------------------|
G||-------------------------|--7-----7-----7--7--7-----|--------------------------|
D||--3-----3-----3--3--3----|--7-----7-----7--7--7-----|--7--7--7--7--7--7--7--7--|
A||--3-----3-----3--3--3----|--5-----5-----5--5--5-----|--7--7--7--7--7--7--7--7--|
E||--1-----1-----1--1--1----|--------------------------|--5--5--5--5--5--5--5--5--|

E||--------------------------|
B||--------------------------|
G||--------------------------|
D||--5--5--5--5--5--5--5--5--|
A||--5--5--5--5--5--5--5--5--|
E||--3--3--3--3--3--3--3--3--|

Bridge Lead
e|------------------|------------------|------------------|------------------------|
B|-15--15--15-15-15-|-17--17--17-17-17-|-13--13--13-15-13-|-12--12-12--12-12-12-12-|
G|------------------|------------------|------------------|------------------------|
D|------------------|------------------|------------------|------------------------|
A|------------------|------------------|------------------|------------------------|
E|------------------|------------------|------------------|------------------------| X 2


e|------------------|------------------|------------------|------------------------|
B|-15--15--15-15-15-|-17--17--17-17-17-|-13--13-12--12-10-|-10-8-------------------|
G|------------------|------------------|------------------|------------------------|
D|-12--12--12-12-12-|-14--14--14-14-14-|-10--10-9---9--7--|-7--5-------------------|
A|------------------|------------------|------------------|------------------------|
E|------------------|------------------|------------------|------------------------|


e|------------------|------------------|------------------|------------------------|
B|-15--15--15-15-15-|-17--17--17-17-17-|-13--13-12--12-10-|-10-8-8--10-------------|
G|------------------|------------------|------------------|------------------------|
D|-12--12--12-12-12-|-14--14--14-14-14-|-10--10-9---9--7--|-7--5-5--7--------------|
A|------------------|------------------|------------------|------------------------|
E|------------------|------------------|------------------|------------------------|

Rest of the song as chorus chords
Добавлено: 21.04.2012
Другие материалы по этой песне:
  • Аккорды и текст

Страница создана 21.04.2012
http://primanota.ru/for-our-hero/mister-prozac-chords.htm
Привет, Гость.
Предлагаем пройти революционный курс по гитаре.
Подарок от PrimaNota.Ru, забирай!