PrimaNota.ru - самый крупный в мире бесплатный архив песенных текстов, аккордов, табулатур и нот


For My Pain - Dear Carniwhore - текст песни, таба, видео

Регистрация Запомнить меня
Войти через:  Facebook Google Twitter Vk Yandex Mail.ru

For My Pain - Dear Carniwhore - текст песни, таба, видео

Печатать
Просмотров: 145
FOR MY PAIN: Dear Carniwhore
Tabbed by: Mcmartini
Tuning: A# F A# D# G C

Intro
Guitar I Clean
C |------5---8---7---------5---8---7-------------------------------------------|
G |----6--6----6---6-6---6--6----6---6-6---------------------------------------|
D#|--7--7--7----7---7--7--7--7----7---7----------------------------------------|
A#|----------------------------------------------------------------------------|
F |----------------------------------------------------------------------------|
A#|----------------------------------------------------------------------------|

Guitar II Rythm
C |----------------------------------------------------------------------------|
G |----------------------------------------------------------------------------|
D#|----------------------------------------------------------------------------|
A#|----------------------------------------------------------------------------|
F |----------------------------------------------------------------------------|
A#|----------------------------------------------------------------------------|

Guitar I Clean
C |------5---8---7---------5---8---7-------------------------------------------|
G |----6--6----6---6-6---6--6----6---6-6---------------------------------------|
D#|--7--7--7----7---7--7--7--7----7---7----------------------------------------|
A#|----------------------------------------------------------------------------|
F |----------------------------------------------------------------------------|
A#|----------------------------------------------------------------------------|

Guitar Rythm
C |----------------------------------------------------------------------------|
G |----------------------------------------------------------------------------|
D#|--7-----------------7-------------------------------------------------------|
A#|--7-----------------7-------------------------------------------------------|
F |--5-----------------5---------\\\\\\\---------------------------------------|
A#|----------------------------------------------------------------------------|

Guitar I Clean
C |----------8----7------------8----7------------------------------------------|
G |----6-8-6---6---6-6---6-8-6---6---6-6---------------------------------------|
D#|--7--7---7---7---7--7--7---7---7---7----------------------------------------|
A#|----------------------------------------------------------------------------|
F |----------------------------------------------------------------------------|
A#|----------------------------------------------------------------------------|

Guitar II Rythm
C |----------------------------------------------------------------------------|
G |----------------------------------------------------------------------------|
D#|--7---5---3---------7---2---3-----------------------------------------------|
A#|--7---5---3----5----7---2---3----5------------------------------------------|
F |--5---3---1----5----5---0---1----5------------------------------------------|
A#|---------------5-----------------5------------------------------------------|

Guitar I Clean
C |----------8----7------------8----7------------------------------------------|
G |----6-8-6---6---6-6---6-8-6---6---6-6---------------------------------------|
D#|--7--7---7---7---7--7--7---7---7---7----------------------------------------|
A#|----------------------------------------------------------------------------|
F |----------------------------------------------------------------------------|
A#|----------------------------------------------------------------------------|

Guitar II Rythm
C |----------------------------------------------------------------------------|
G |----------------------------------------------------------------------------|
D#|--7---5---3---------7---2---3-----------------------------------------------|
A#|--7---5---3----5----7---2---3----5------------------------------------------|
F |--5---3---1----5----5---0---1----5------------------------------------------|
A#|---------------5-----------------5------------------------------------------|

Verse I
Guitar I Clean
C |----------------------------------------------------------------------------|
G |----------------------------------------------------------------------------|
D#|----------------------------------------------------------------------------|
A#|----------------------------------------------------------------------------|
F |----------------------------------------------------------------------------|
A#|----------------------------------------------------------------------------|

Guitar II Rythm
C |----------------------------------------------------------------------------|
G |----------------------------------------------------------------------------|
D#|--7-7-7-7-7-7-7-7-7-7-7-7-7-------7-7-7-7-7-7-7-7-7-7-7-7-7-----------------|
A#|--7-7-7-7-7-7-7-7-7-7-7-7-7----5--7-7-7-7-7-7-7-7-7-7-7-7-7----5------------|
F |--5-5-5-5-5-5-5-5-5-5-5-5-5-3-5-5-5-5-5-5-5-5-5-5-5-5-5-5-5-3-5-5-----------|
A#|----------------------------------------------------------------------------|
  PM . . . . . . . . . . . . .       . . . . . . . . . . . . .

Guitar I Clean
C |----------------------------------------------------------------------------|
G |----------------------------------------------------------------------------|
D#|----------------------------------------------------------------------------|
A#|----------------------------------------------------------------------------|
F |----------------------------------------------------------------------------|
A#|----------------------------------------------------------------------------|

Guitar II Rythm
C |----------------------------------------------------------------------------|
G |----------------------------------------------------------------------------|
D#|--7-7-7-7-7-7-7-7-7-7-7-7-7-------7-7-7-7-7-7-7-7-5-5-3-5-7-7---------------|
A#|--7-7-7-7-7-7-7-7-7-7-7-7-7----5--7-7-7-7-7-7-7-7-5-5-3-5-7-7---------------|
F |--5-5-5-5-5-5-5-5-5-5-5-5-5-3-5-5-5-5-5-5-5-5-5-5-3-3-1-3-5-5---------------|
A#|----------------------------------------------------------------------------|
  PM . . . . . . . . . . . . .       . . . . . . . . 

Verse II
Guitar I Clean
C |----------------------------------------------------------------------------|
G |----------------------------------------------------------------------------|
D#|----------------------------------------------------------------------------|
A#|----------------------------------------------------------------------------|
F |----------------------------------------------------------------------------|
A#|----------------------------------------------------------------------------|

Guitar II Rythm
C |----------------------------------------------------------------------------|
G |----------------------------------------------------------------------------|
D#|--7-7-7-7-7-7-7-7-7-7-7-7-7-------7-7-7-7-7-7-7-7-7-7-7-7-7-----------------|
A#|--7-7-7-7-7-7-7-7-7-7-7-7-7----5--7-7-7-7-7-7-7-7-7-7-7-7-7----5------------|
F |--5-5-5-5-5-5-5-5-5-5-5-5-5-3-5-5-5-5-5-5-5-5-5-5-5-5-5-5-5-3-5-5-----------|
A#|----------------------------------------------------------------------------|
  PM . . . . . . . . . . . . .       . . . . . . . . . . . . .

Guitar I Clean
C |----------------------------------------------------------------------------|
G |----------------------------------------------------------------------------|
D#|----------------------------------------------------------------------------|
A#|----------------------------------------------------------------------------|
F |----------------------------------------------------------------------------|
A#|----------------------------------------------------------------------------|

Guitar II Rythm
C |----------------------------------------------------------------------------|
G |----------------------------------------------------------------------------|
D#|--7-7-7-7-7-7-7-7-7-7-7-7-7-------7-7-7-7-7-7-7-7-5-5-3-5-7-7---------------|
A#|--7-7-7-7-7-7-7-7-7-7-7-7-7----5--7-7-7-7-7-7-7-7-5-5-3-5-7-7---------------|
F |--5-5-5-5-5-5-5-5-5-5-5-5-5-3-5-5-5-5-5-5-5-5-5-5-3-3-1-3-5-5---------------|
A#|----------------------------------------------------------------------------|
  PM . . . . . . . . . . . . .       . . . . . . . . 


Chorus 
Guitar I Clean
C |----------8----7------------8----7------------------------------------------|
G |----6-8-6---6---6-6---6-8-6---6---6-6---------------------------------------|
D#|--7--7---7---7---7--7--7---7---7---7----------------------------------------|
A#|----------------------------------------------------------------------------|
F |----------------------------------------------------------------------------|
A#|----------------------------------------------------------------------------|

Guitar II Rythm
C |----------------------------------------------------------------------------|
G |----------------------------------------------------------------------------|
D#|--7---5---3---------7---2---3-----------------------------------------------|
A#|--7---5---3----5----7---2---3----5------------------------------------------|
F |--5---3---1----5----5---0---1----5------------------------------------------|
A#|---------------5-----------------5------------------------------------------|

Guitar I Clean
C |----------8----7------------8----7------------------------------------------|
G |----6-8-6---6---6-6---6-8-6---6---6-6---------------------------------------|
D#|--7--7---7---7---7--7--7---7---7---7----------------------------------------|
A#|----------------------------------------------------------------------------|
F |----------------------------------------------------------------------------|
A#|----------------------------------------------------------------------------|


Guitar II Rythm
C |----------------------------------------------------------------------------|
G |----------------------------------------------------------------------------|
D#|--7---5---3---------7---2---3---------7----7-7-7-7-7-7-7-7-7-7-7-7-7-7-7-7-7|
A#|--7---5---3----5----7---2---3----5----7----7-7-7-7-7-7-7-7-7-7-7-7-7-7-7-7-7|
F |--5---3---1----5----5---0---1----5----5----5-5-5-5-5-5-5-5-5-5-5-5-5-5-5-5-5|
A#|---------------5-----------------5------------------------------------------|
                                            PM. . . . . . . . . . . . . . . . .

Verse III

Verse IV

Chorus 4x



Solo
Guitar I solo
C |----------------------------------------------------------------------------|
G |--5----5-7--------3-8-8--8-10------5----5-7--------3-8-8--8-10-7------------|
D#|------7---7-4--2-4-----10----11--7-----7---7-4--2-4-4---10------------------|
A#|----------------------------------------------------------------------------|
F |----------------------------------------------------------------------------|
A#|----------------------------------------------------------------------------|

Guitar II Rythm
C |----------------------------------------------------------------------------|
G |----------------------------------------------------------------------------|
D#|----------------------------------------------------------------------------|
A#|--2---5---0---------2---5---0------2---5---0---------2---5---0--------------|
F |--2---5---0---------2---5---0------2---5---0---------2---5---0--------------|
A#|--2---5---0---------2---5---0------2---5---0---------2---5---0--------------|
     
Verse V

Chorus 4x
Guitar I Clean
C |----------8----7------------8----7------------------------------------------|
G |----6-8-6---6---6-6---6-8-6---6---6-6---------------------------------------|
D#|--7--7---7---7---7--7--7---7---7---7----------------------------------------|
A#|----------------------------------------------------------------------------|
F |----------------------------------------------------------------------------|
A#|----------------------------------------------------------------------------|

Guitar II Rythm
C |----------------------------------------------------------------------------|
G |----------------------------------------------------------------------------|
D#|--7---5---3---------7---2---3---------7-------------------------------------|
A#|--7---5---3----5----7---2---3----5----7-------------------------------------|
F |--5---3---1----5----5---0---1----5----5-------------------------------------|
A#|---------------5-----------------5------------------------------------------|
                                         Let ring       




ENJOY!
My first a whole song tab. If you have any question: mcmartini@seznam.cz
I will try another tabs for the other songs of this fantastic band \,,/  \,,/ 
Добавлено: 24.07.2012
Вам также может быть интересно:
Другие материалы по этой песне:
  • Аккорды и текст

Страница создана 26.04.2012
http://primanota.ru/for-my-pain/dear-carniwhore-chords.htm
Привет, Гость.
Предлагаем пройти революционный курс по гитаре.
Подарок от PrimaNota.Ru, забирай!