PrimaNota.ru - самый крупный в мире бесплатный архив песенных текстов, аккордов, табулатур и нот


For My Pain - Bed Of Dead Leaves - текст песни, таба, видео

Регистрация Запомнить меня
Войти через:  Facebook Google Twitter Vk Yandex Mail.ru

For My Pain - Bed Of Dead Leaves - текст песни, таба, видео

Печатать
Просмотров: 132
Уроки эстрадного вокала в Санкт-Петербурге
FOR MY PAIN: Bed of Dead Leaves
Tabbed by: Mcmartini
Tuning: A# F A# D# G C

Intro
Guitar I distortion
C |--------14-12~----------14-12~----------14-12~----------14-12~----------14-12~----|
G |--12--12------15--12--12------15--12--12------15--12--12------15--12--12------15--|
D#|----11--------------11--------------11--------------11--------------11------------|
A#|----------------------------------------------------------------------------------|
F |----------------------------------------------------------------------------------|
A#|----------------------------------------------------------------------------------|

Guitar II Rhythm
C |----------------------------------------------------------------------------------|
G |----------------------------------------------------------------------------------|
D#|----------------------------------------------------------------------------------|
A#|------------------9-9-9-9-9-9-9-9-5-5-5-5-5-5-5-5-6-6-6-6-6-6-6-6-5-5-5-5-5-5-5-5-|
F |------------------9-9-9-9-9-9-9-9-5-5-5-5-5-5-5-5-6-6-6-6-6-6-6-6-5-5-5-5-5-5-5-5-|
A#|--------------15/-9-9-9-9-9-9-9-9-5-5-5-5-5-5-5-5-6-6-6-6-6-6-6-6-5-5-5-5-5-5-5-5-|

Guitar I distortion
C |--------14-12~----------14-12~----------14-12~----------14-12~--------------------|
G |--12--12------15--12--12------15--12--12------15--12--12------15-12---------------|
D#|----11--------------11--------------11--------------11----------------------------|
A#|----------------------------------------------------------------------------------|
F |----------------------------------------------------------------------------------|
A#|----------------------------------------------------------------------------------|

Guitar II Rhythm
C |----------------------------------------------------------------------------------|
G |----------------------------------------------------------------------------------|
D#|----------------------------------------------------------------------------------|
A#|--9-9-9-9-9-9-9-9-5-5-5-5-5-5-5-5-6-6-6-6-6-6-6-6-5-5-5-5-5-5-5-5-9---------------|
F |--9-9-9-9-9-9-9-9-5-5-5-5-5-5-5-5-6-6-6-6-6-6-6-6-5-5-5-5-5-5-5-5-9---------------|
A#|--9-9-9-9-9-9-9-9-5-5-5-5-5-5-5-5-6-6-6-6-6-6-6-6-5-5-5-5-5-5-5-5-9---------------|

Verse

Chorus
Guitar II Rhythm
C |----------------------------------------------------------------------------------|
G |----------------------------------------------------------------------------------|
D#|----------------------------------------------------------------------------------|
A#|--9-9-9-9-9-9-9-9-9-9-9-9-9-9-9-9-9-9-7-7-7-7-7-7-7-7-7-7-7-7-7-7-7-7-7-7---------|
F |--9-9-9-9-9-9-9-9-9-9-9-9-9-9-9-9-9-9-7-7-7-7-7-7-7-7-7-7-7-7-7-7-7-7-7-7---------|
A#|--9-9-9-9-9-9-9-9-9-9-9-9-9-9-9-9-9-9-7-7-7-7-7-7-7-7-7-7-7-7-7-7-7-7-7-7---------|
   PM              . .               . .               . .               . .

C |----------------------------------------------------------------------------------|
G |----------------------------------------------------------------------------------|
D#|----------------------------------------------------------------------------------|
A#|--5-5-5-5-5-5-5-5-5-5-5-5-5-7-7-7-7-7-9-9-9-9-9-9-9-9-9-4-4-4-4-4-4-4--4----------|
F |--5-5-5-5-5-5-5-5-5-5-5-5-5-7-7-7-7-7-9-9-9-9-9-9-9-9-9-4-4-4-4-4-4-4--4----------|
A#|--5-5-5-5-5-5-5-5-5-5-5-5-5-7-7-7-7-7-9-9-9-9-9-9-9-9-9-4-4-4-4-4-4-4--4----------|
   PM              . .               . .               . .


Guitar II Rhythm
C |----------------------------------------------------------------------------------|
G |----------------------------------------------------------------------------------|
D#|----------------------------------------------------------------------------------|
A#|--9-9-9-9-9-9-9-9-5-5-5-5-5-5-5-5-6-6-6-6-6-6-6-6-5-5-5-5-5-5-5-5-----------------|
F |--9-9-9-9-9-9-9-9-5-5-5-5-5-5-5-5-6-6-6-6-6-6-6-6-5-5-5-5-5-5-5-5-----------------|
A#|--9-9-9-9-9-9-9-9-5-5-5-5-5-5-5-5-6-6-6-6-6-6-6-6-5-5-5-5-5-5-5-5-----------------|

C |----------------------------------------------------------------------------------|
G |----------------------------------------------------------------------------------|
D#|----------------------------------------------------------------------------------|
A#|--9-9-9-9-9-9-9-9-5-5-5-5-5-5-5-5-6-6-6-6-6-6-6-6-5-5-5-5-5-5-5-5-----------------|
F |--9-9-9-9-9-9-9-9-5-5-5-5-5-5-5-5-6-6-6-6-6-6-6-6-5-5-5-5-5-5-5-5-----------------|
A#|--9-9-9-9-9-9-9-9-5-5-5-5-5-5-5-5-6-6-6-6-6-6-6-6-5-5-5-5-5-5-5-5-----------------|

C |----------------------------------------------------------------------------------|
G |----------------------------------------------------------------------------------|
D#|----------------------------------------------------------------------------------|
A#|--4-4-4-4-4-4-4-4-4-4-4--4-4-4-4-4-4-4-4-4-4-4--4-4-4-4-4-4-4-4-4-4-4-------------|
F |--4-4-4-4-4-4-4-4-4-4-4--4-4-4-4-4-4-4-4-4-4-4--4-4-4-4-4-4-4-4-4-4-4-------------|
A#|--4-4-4-4-4-4-4-4-4-4-4--4-4-4-4-4-4-4-4-4-4-4--4-4-4-4-4-4-4-4-4-4-4-------------|
     d u u d d u u d u d u  d u u d d u u d u d u  d u u d d u u d u d u

C |----------------------------------------------------------------------------------|
G |----------------------------------------------------------------------------------|
D#|----------------------------------------------------------------------------------|
A#|--4-4-4-4-4-4-4-4-4-4-4---9-------------------------------------------------------|
F |--4-4-4-4-4-4-4-4-4-4-4---9-------------------------------------------------------|
A#|--4-4-4-4-4-4-4-4-4-4-4---9-------------------------------------------------------|
     d u u d d u u d u d u  

Verse

Chorus
Guitar II Rhythm
C |----------------------------------------------------------------------------------|
G |----------------------------------------------------------------------------------|
D#|----------------------------------------------------------------------------------|
A#|--x-x--x-x-x----------------------------------------------------------------------|
F |--x-x--x-x-x----------------------------------------------------------------------|
A#|--x-x--x-x-x----------------------------------------------------------------------|
     d u  u d u

C |----------------------------------------------------------------------------------|
G |----------------------------------------------------------------------------------|
D#|----------------------------------------------------------------------------------|
A#|--9-9-9-9-9-9-9-9-9-9-9-9-9-9-9-9-9-9-7-7-7-7-7-7-7-7-7-7-7-7-7-7-7-7-7-7---------|
F |--9-9-9-9-9-9-9-9-9-9-9-9-9-9-9-9-9-9-7-7-7-7-7-7-7-7-7-7-7-7-7-7-7-7-7-7---------|
A#|--9-9-9-9-9-9-9-9-9-9-9-9-9-9-9-9-9-9-7-7-7-7-7-7-7-7-7-7-7-7-7-7-7-7-7-7---------|
   PM              . .               . .               . .               . .

C |----------------------------------------------------------------------------------|
G |----------------------------------------------------------------------------------|
D#|----------------------------------------------------------------------------------|
A#|--5-5-5-5-5-5-5-5-5-5-5-5-5-7-7-7-7-7-9-9-9-9-9-9-9-9-9-4-4-4-4-4-4-4-4-4---------|
F |--5-5-5-5-5-5-5-5-5-5-5-5-5-7-7-7-7-7-9-9-9-9-9-9-9-9-9-4-4-4-4-4-4-4-4-4---------|
A#|--5-5-5-5-5-5-5-5-5-5-5-5-5-7-7-7-7-7-9-9-9-9-9-9-9-9-9-4-4-4-4-4-4-4-4-4---------|
   PM              . .               . .               . .               . . 


C |----------------------------------------------------------------------------------|
G |----------------------------------------------------------------------------------|
D#|----------------------------------------------------------------------------------|
A#|--9-9-9-9-9-9-9-9-9-9-9-9-9-9-9-9-9-9-7-7-7-7-7-7-7-7-7-7-7-7-7-7-7-7-7-7---------|
F |--9-9-9-9-9-9-9-9-9-9-9-9-9-9-9-9-9-9-7-7-7-7-7-7-7-7-7-7-7-7-7-7-7-7-7-7---------|
A#|--9-9-9-9-9-9-9-9-9-9-9-9-9-9-9-9-9-9-7-7-7-7-7-7-7-7-7-7-7-7-7-7-7-7-7-7---------|
   PM              . .               . .               . .               . .

C |----------------------------------------------------------------------------------|
G |----------------------------------------------------------------------------------|
D#|----------------------------------------------------------------------------------|
A#|--5-5-5-5-5-5-5-5-5-5-5-5-5-7-7-7-7-7-9-9-9-9-9-9-9-9-9-4-4-4-4-4-4-4-4-4---------|
F |--5-5-5-5-5-5-5-5-5-5-5-5-5-7-7-7-7-7-9-9-9-9-9-9-9-9-9-4-4-4-4-4-4-4-4-4---------|
A#|--5-5-5-5-5-5-5-5-5-5-5-5-5-7-7-7-7-7-9-9-9-9-9-9-9-9-9-4-4-4-4-4-4-4-4-4---------|
   PM              . .               . .               . .               . . 

Solo

Guitar I distortion
C |----------------------------------------------------------------------------------|
G |----------------------------------------------------------------------------------|
D#|--7-6---------------------------------7-6-------------------------7-6-------------|
A#|------7-9~~-------------4-7---9-9---------7-9~~-------------4-7-------7-----------|
F |--------------------5-7---------------------------------5-7-----------------------|
A#|----------------------------------------------------------------------------------|

Guitar II Rhythm
C |----------------------------------------------------------------------------------|
G |----------------------------------------------------------------------------------|
D#|----------------------------------------------------------------------------------|
A#|--9-9-9-9-9-9-9-9-9-9-9-9-9-9-9-9-9-9-7-7-7-7-7-7-7-7-7-7-7-7-7-7-7-7-7-7---------|
F |--9-9-9-9-9-9-9-9-9-9-9-9-9-9-9-9-9-9-7-7-7-7-7-7-7-7-7-7-7-7-7-7-7-7-7-7---------|
A#|--9-9-9-9-9-9-9-9-9-9-9-9-9-9-9-9-9-9-7-7-7-7-7-7-7-7-7-7-7-7-7-7-7-7-7-7---------|
   PM              . .               . .               . .               . .

Guitar I distortion
C |----------------------------------------------------------------------------------|
G |----------------------------------------------------------------------------------|
D#|--7-6---------------------------------7-6-------------------------7-6-------------|
A#|------7-9~~-------------4-7---9-9---------7-9~~-------------4-7-------7-----------|
F |--------------------5-7---------------------------------5-7-----------------------|
A#|----------------------------------------------------------------------------------|

Guitar II Rhythm
C |----------------------------------------------------------------------------------|
G |----------------------------------------------------------------------------------|
D#|----------------------------------------------------------------------------------|
A#|--5-5-5-5-5-5-5-5-5-5-5-5-5-7-7-7-7-7-9-9-9-9-9-9-9-9-9-4-4-4-4-4-4-4-4-4---------|
F |--5-5-5-5-5-5-5-5-5-5-5-5-5-7-7-7-7-7-9-9-9-9-9-9-9-9-9-4-4-4-4-4-4-4-4-4---------|
A#|--5-5-5-5-5-5-5-5-5-5-5-5-5-7-7-7-7-7-9-9-9-9-9-9-9-9-9-4-4-4-4-4-4-4-4-4---------|
   PM              . .               . .               . .               . . 

Guitar I distortion
C |----------------------------------------------------------------------------------|
G |----------------------------------------------------------------------------------|
D#|--7-6---------------------------------7-6-------------------------7-6-------------|
A#|------7-9~~-------------4-7---9-9---------7-9~~-------------4-7-------7-----------|
F |--------------------5-7---------------------------------5-7-----------------------|
A#|----------------------------------------------------------------------------------|


Guitar II Rhythm
C |----------------------------------------------------------------------------------|
G |----------------------------------------------------------------------------------|
D#|----------------------------------------------------------------------------------|
A#|--9-9-9-9-9-9-9-9-9-9-9-9-9-9-9-9-9-9-7-7-7-7-7-7-7-7-7-7-7-7-7-7-7-7-7-7---------|
F |--9-9-9-9-9-9-9-9-9-9-9-9-9-9-9-9-9-9-7-7-7-7-7-7-7-7-7-7-7-7-7-7-7-7-7-7---------|
A#|--9-9-9-9-9-9-9-9-9-9-9-9-9-9-9-9-9-9-7-7-7-7-7-7-7-7-7-7-7-7-7-7-7-7-7-7---------|
   PM              . .               . .               . .               . .

Guitar I distortion
C |----------------------------------------------------------------------------------|
G |----------------------------------------------------------------------------------|
D#|--7-6-----------------------------------------------------------------------------|
A#|------7-9~~-------------4-7---9-9---------4-7---9-------4~------------------------|
F |--------------------5-7---------------5-7-----------------------------------------|
A#|----------------------------------------------------------------------------------|

Guitar II Rhythm
C |----------------------------------------------------------------------------------|
G |----------------------------------------------------------------------------------|
D#|----------------------------------------------------------------------------------|
A#|--5-5-5-5-5-5-5-5-5-5-5-5-5-7-7-7-7-7-9-9-9-9-9-9-9-9-9-4-4-4-4-4-4-4--4----------|
F |--5-5-5-5-5-5-5-5-5-5-5-5-5-7-7-7-7-7-9-9-9-9-9-9-9-9-9-4-4-4-4-4-4-4--4----------|
A#|--5-5-5-5-5-5-5-5-5-5-5-5-5-7-7-7-7-7-9-9-9-9-9-9-9-9-9-4-4-4-4-4-4-4--4----------|
   PM              . .               . .               . .                


Outro
Guitar II Rhythm
C |----------------------------------------------------------------------------------|
G |----------------------------------------------------------------------------------|
D#|----------------------------------------------------------------------------------|
A#|--9-9-9-9-9-9-9-9-5-5-5-5-5-5-5-5-6-6-6-6-6-6-6-6-5-5-5-5-5-5-5-5-----------------|
F |--9-9-9-9-9-9-9-9-5-5-5-5-5-5-5-5-6-6-6-6-6-6-6-6-5-5-5-5-5-5-5-5-----------------|
A#|--9-9-9-9-9-9-9-9-5-5-5-5-5-5-5-5-6-6-6-6-6-6-6-6-5-5-5-5-5-5-5-5-----------------|

C |----------------------------------------------------------------------------------|
G |----------------------------------------------------------------------------------|
D#|----------------------------------------------------------------------------------|
A#|--9-9-9-9-9-9-9-9-5-5-5-5-5-5-5-5-6-6-6-6-6-6-6-6-5-5-5-5-5-5-5-5-----------------|
F |--9-9-9-9-9-9-9-9-5-5-5-5-5-5-5-5-6-6-6-6-6-6-6-6-5-5-5-5-5-5-5-5-----------------|
A#|--9-9-9-9-9-9-9-9-5-5-5-5-5-5-5-5-6-6-6-6-6-6-6-6-5-5-5-5-5-5-5-5-----------------|

Guitar II Rhythm
C |----------------------------------------------------------------------------------|
G |----------------------------------------------------------------------------------|
D#|----------------------------------------------------------------------------------|
A#|--9-9-9-9-9-9-9-9-5-5-5-5-5-5-5-5-6-6-6-6-6-6-6-6-5-5-5-5-5-5-5-5-----------------|
F |--9-9-9-9-9-9-9-9-5-5-5-5-5-5-5-5-6-6-6-6-6-6-6-6-5-5-5-5-5-5-5-5-----------------|
A#|--9-9-9-9-9-9-9-9-5-5-5-5-5-5-5-5-6-6-6-6-6-6-6-6-5-5-5-5-5-5-5-5-----------------|

C |----------------------------------------------------------------------------------|
G |----------------------------------------------------------------------------------|
D#|----------------------------------------------------------------------------------|
A#|--9-9-9-9-9-9-9-9-5-5-5-5-5-5-5-5-6-6-6-6-6-6-6-6-5-5-5-5-5-5-5-5-----------------|
F |--9-9-9-9-9-9-9-9-5-5-5-5-5-5-5-5-6-6-6-6-6-6-6-6-5-5-5-5-5-5-5-5-----------------|
A#|--9-9-9-9-9-9-9-9-5-5-5-5-5-5-5-5-6-6-6-6-6-6-6-6-5-5-5-5-5-5-5-5-----------------|

Guitar II Rhythm
C |----------------------------------------------------------------------------------|
G |----------------------------------------------------------------------------------|
D#|----------------------------------------------------------------------------------|
A#|--4-4-4-4-4-4-4-4-4-4-4--4-4-4-4-4-4-4-4-4-4-4--4-4-4-4-4-4-4-4-4-4-4-------------|
F |--4-4-4-4-4-4-4-4-4-4-4--4-4-4-4-4-4-4-4-4-4-4--4-4-4-4-4-4-4-4-4-4-4-------------|
A#|--4-4-4-4-4-4-4-4-4-4-4--4-4-4-4-4-4-4-4-4-4-4--4-4-4-4-4-4-4-4-4-4-4-------------|
     d u u d d u u d u d u  d u u d d u u d u d u  d u u d d u u d u d u

C |----------------------------------------------------------------------------------|
G |----------------------------------------------------------------------------------|
D#|----------------------------------------------------------------------------------|
A#|--4-4-4-4-4-4-4-4-4-4-4---9-------------------------------------------------------|
F |--4-4-4-4-4-4-4-4-4-4-4---9-let ring----------------------------------------------|
A#|--4-4-4-4-4-4-4-4-4-4-4---9-------------------------------------------------------|
     d u u d d u u d u d u  




Definition:

d - downstring
u - upstring


ENJOY!
If you have any question: mcmartini@seznam.cz
I will try another tabs for the other songs of this fantastic band \,,/  \,,/ 
Добавлено: 18.05.2012
Другие материалы по этой песне:
  • Аккорды и текст

Страница создана 25.04.2012
http://primanota.ru/for-my-pain/bed-of-dead-leaves-chords.htm
Привет, Гость.
Предлагаем пройти революционный курс по гитаре.
Подарок от PrimaNota.Ru, забирай!