PrimaNota.ru - самый крупный в мире бесплатный архив песенных текстов, аккордов, табулатур и нот


For All Those Sleeping - You Belong With Me - таба, видео

Регистрация Запомнить меня
Войти через:  Facebook Google Twitter Vk Yandex Mail.ru

For All Those Sleeping - You Belong With Me - таба, видео

Печатать
Просмотров: 160
Авторы: Taylor Swift, Liz Rose

seeing that no one tabbed out this song which surprised me i decided

to do it :3 , this is from what i know about 100% correct

   (tremolo picking, listen to song for timing its simple)
   *Intro*
C#|---------------------------------------------------------------|
G#|---------------------------------------------------------------|
E |---------------------------------------------------------------|
B |---------------------------------------------------------------|
F#|---------------------------------------------------------------|
B |-8-0"--8-0"--5-0"--3-0"--5"-8"---------------------------------|

C#|---------------------------------------------------------------|
G#|---------------------------------------------------------------|
E |---------------------------------------------------------------|
B |---------------------------------------------------------------|
F#|-------------------------000-000-------------------------------|
B |-8-0"--8-0"--5-0"--3-0"--000-000--5"-8"------------------------|
PM                          *** ***



   *Verse/Pre-Chorus* or whatever, i tried showing the the rhythm as

best I could
C#|---------------------------------------------------------------|
G#|---------------------------------------------------------------|
E |---------------------------------------------------------------|
B |---------------------------------------------------------------|
F#|-7-7-777--7-777--101010-101010-10-101010-----------------------|
B |-7-7-777--7-777--101010-101010-10-101010---5"--0"--------------|
PM  *   **   * **   * *    * *    *  * *

C#|---------------------------------------------------------------|
G#|---------------------------------------------------------------|
E |---------------------------------------------------------------|
B |---------------------------------------------------------------|
F#|-7-7-777--7-777--101010-101010-101010-1010--0~-----------------|
B |-7-7-777--7-777--101010-101010-101010-1010--0~-----------------|
PM  *   **   * **   * *    * *    * *    * *



   *Chorus 1*
C#|---------------------------------------------------------------|
G#|---------------------------------------------------------------|
E |---------------------------------------------------------------|
B |-5555555555555555-0000000000000000-77777777777777777-10~-------|
F#|-5555555555555555-0000000000000000-77777777777777777-10~-------|
B |-5555555555555555-0000000000000000-77777777777777777-10~-------|



   *Fill*
C#|---------------------------------------------------------------|
G#|---------------------------------------------------------------|
E |---------------------------------------------------------------|
B |-----------------------------------5~--------------------------|
F#|-----------------------------------5~--------------------------|
B |-1-0-0000-1-0-0000-1-0-0000-1-333--5~--------------------------|

                               ^ ^^^ not sure about this part here,

could be 3 or 5 :p



(1:02) "Walkin' the streets with you and your worn out jeans"



   *Verse/Pre-Chorus*
C#|---------------------------------------------------------------|
G#|---------------------------------------------------------------|
E |---------------------------------------------------------------|
B |---------------------------------------------------------------|
F#|-7-7-777--7-777--101010-101010-10-101010-----------------------|
B |-7-7-777--7-777--101010-101010-10-101010---5"--0"--------------|
PM  *   **   * **   * *    * *    *  * *

C#|---------------------------------------------------------------|
G#|---------------------------------------------------------------|
E |---------------------------------------------------------------|
B |---------------------------------------------------------------|
F#|-7-7-777--7-777--101010-101010-101010-1010--0~-----------------|
B |-7-7-777--7-777--101010-101010-101010-1010--0~-----------------|
PM  *   **   * **   * *    * *    * *    * *



   *Chorus*
C#|---------------------------------------------------------------|
G#|---------------------------------------------------------------|
E |---------------------------------------------------------------|
B |-5555555555555555-0000000000000000-77777777777777777-10--------|
F#|-5555555555555555-0000000000000000-77777777777777777-10-x16----|
B |-5555555555555555-0000000000000000-77777777777777777-10--------|



   *Pre-Breakdown* or interlude whatever you wanna call it, you dont

have to really emphasize the sliding when you go from 7 to 10
C#|---------------------------------------------------------------|
G#|---------------------------------------------------------------|
E |---------------------------------------------------------------|
B |--------------------------55555555-00000000--------------------|
F#|-7-777-77/10-101010-1010--55555555-00000000--------------------|
B |-7-777-77/10-101010 1010--55555555-00000000--------------------|
PM    ***       * * *

C#|---------------------------------------------------------------|
G#|---------------------------------------------------------------|
E |---------------------------------------------------------------|
B |--------------------------55555555-0~--------------------------|
F#|-7-777-77/10-101010-1010--55555555-0~--------------------------|
B |-7-777-77/10-101010 1010--55555555-0~--------------------------|
PM    ***       * * *


   *Brutal Breakdown* (again, I tried to show the rhythm the best I

could)
C#|-----------------------------------------------------------------|
G#|-----------------------------------------------------------------|
E |-----------------------------------------------------------------|
B |-----------------------------------------------------------------|
F#|-000-0-0~-0-0-0~-0-0-0~--0-0-0-00-00-0000000-0-0-0-00-00-0000000-|
B |-111-1-1~-1-1-1~-1-1-1~--1-1-1-00-00-0000000-0-0-0-00-00-0000000-|
PM  *** * *  * * *  * * *   * * * ** ** ******* * * * ** ** *******

C#|---------------------------------------------------------------|
G#|---------------------------------------------------------------|
E |---------------------------------------------------------------|
B |---------------------------------------------------------------|
F#|-000-0-0-0----000-0-0~-0-0-0~-0-0-0~--0-0-0-00-00-0000000------|
B |-000-0-0-0-1b-111-1-1~-1-1-1~-1-1-1~--1-1-1-00-00-0000000------|
PM  *** * * *    *** * *  * * *  * * *   * * * ** ** *******

C#|---------------------------------------------------------------|
G#|---------------------------------------------------------------|
E |---------------------------------------------------------------|
B |---------------------------------------------------------------|
F#|-0-0-0-00-00-0000000--0000-0-0---------------------------------|
B |-0-0-0-00-00-0000000--0000-0-0---------------------------------|
PM  * * * ** ** *******  **** * *



   *Fill thing after breakdown*
C#|---------------------------------------------------------------|
G#|---------------------------------------------------------------|
E |---------------------------------------------------------------|
B |-5~----0~----7~----10~-----------------------------------------|
F#|-5~----0~----7~----10~-----------------------------------------|
B |-5~----0~----7~----10~-----------------------------------------|



   *Chorus*
C#|---------------------------------------------------------------|
G#|---------------------------------------------------------------|
E |---------------------------------------------------------------|
B |-5555555555555555-0000000000000000-77777777777777777-10--------|
F#|-5555555555555555-0000000000000000-77777777777777777-10-x16----|
B |-5555555555555555-0000000000000000-77777777777777777-10--------|


   *Chorus*
C#|---------------------------------------------------------------|
G#|---------------------------------------------------------------|
E |---------------------------------------------------------------|
B |-5555555555555555-0000000000000000-7-7-7-7-7-7-7-7-10----------|
F#|-5555555555555555-0000000000000000-7-7-7-7-7-7-7-7-10-x8-------|
B |-5555555555555555-0000000000000000-7-7-7-7-7-7-7-7-10----------|


End on the chord on the 5th fret
Добавлено: 25.05.2012
Другие материалы по этой песне:
  • Аккорды и текст

Страница создана 25.05.2012
http://primanota.ru/for-all-those-sleeping/you-belong-with-me-chords.htm
Привет, Гость.
Предлагаем пройти революционный курс по гитаре.
Подарок от PrimaNota.Ru, забирай!