PrimaNota.ru - самый крупный в мире бесплатный архив песенных текстов, аккордов, табулатур и нот


Fools Garden - Count On Me - текст песни, таба, видео

Регистрация Запомнить меня
Войти через:  Facebook Google Twitter Vk Yandex Mail.ru

Fools Garden - Count On Me - текст песни, таба, видео

Печатать
Просмотров: 215
-------------------------------------------------------------------------------
                             COUNT ON ME - Fools Garden
-------------------------------------------------------------------------------
Tabbed by: /me

Tuning: Standard

First melody:

                                                                  let ring

e|-----------------------3-3-----2-2------------------------3-3-----2----------|
B|------------0-----------------------------------0----------------------------|
G|----2-2--------0------------------------2-2--------0-------------------------|
D|------------------2----2-2-----0-0--------------------2---2-2-----0----------|
A|---------3------------------3-------2--------3-----------------3-------------|
E|----3-3---------------------------------3-3----------------------------------|
  You came from out of nowhere    Where will you go?
  It seems you've always been there
                                  What do we know?


Second melody:


e|------------------------------------------2-------------------------------------|
B|------------------3--------------------3-----3--------------------0-------------|
G|---------------0-----0--------------2-----------2-----2--------0-----0----------|
D|------------2-----------2-----2--0-----------------0--------0-----------0-----0-|
A|---0--2--3-----------------3-----------------------------2-----------------2----|
E|--------------------------------------------------------------------------------|
        You've put your life in our hands
                             Will we ever know why
                                                    You're so pure , you just say what you're 

e|---------------0--------------------------------------------2-------------------|
B|------------------0-----------------3--------------------3----------------------|
G|------------0--------------------0-----0--------------2-------------------------|
D|---------2--------------------2-----------2-----2--0----------------------------|
A|------2--------------0--2--3-----------------3----------------------------------|
E|---0----------------------------------------------------------------------------|
     thinking             You make everything so deep


        G              Em (haven't taken the time to figure out this part, just playing some strings there)
In your smile, in your eyes
      Am             D
I can see so much of my life
         G             Em
Let your dreams always lead
        Am                         D
I'll be there for you whenever you need
Count on me


&first melody&
When you're weary and troubled
And when all their rules try to put you down
&second melody&
Keep your head always high and don't care what they say
Be yourself and ignore what they're thinking
The most beautiful souls sometimes bleed


        G              Em
In your smile, in your eyes
      Am             D
I can see so much of my life
         G             Em
Let your dreams always lead
        Am                         D
I'll be there for you whenever you need
Count on me

&first melody 1x&


          Am
They will shake you
       D
Try to break you
      G                       Em
But i know that they'll never succeed
          Am
Cause you are strong
           D
Yes you're so strong


        G              Em
In your smile, in your eyes
      Am             D
I can see so much of my life
         G             Em
Let your dreams always lead
        Am                         D
I'll be there for you whenever you need
           G  F#5 (though I prefer to play F#7) Em  
Count on me
           Am  D  G  F#5  Em  Am D
Count on me
Count on me
Добавлено: 16.05.2016
Другие материалы по этой песне:
  • Аккорды и текст

Страница создана 28.03.2012
http://primanota.ru/fools-garden/count-on-me-chords.htm
Привет, Гость.
Предлагаем пройти революционный курс по гитаре.
Подарок от PrimaNota.Ru, забирай!