PrimaNota.ru - самый крупный в мире бесплатный архив песенных текстов, аккордов, табулатур и нот


Foo Fighters - Kung Fu Fightin - текст песни, бас-таба, видео

Регистрация Запомнить меня
Войти через:  Facebook Google Twitter Vk Yandex Mail.ru

Foo Fighters - Kung Fu Fightin - текст песни, бас-таба, видео

Печатать
Просмотров: 177
Уроки эстрадного вокала в Санкт-Петербурге
NOTE: MY BAD, THIS IS NOT A FOO FIGHTERS SONG! IT'S A SONG BY CARL DOUGLAS!!!!! I
WRITE IT HERE BECAUSE I CAN'T CHANGE THE ARTIST'S NAME! THANK YOU!

Standard tuning

Im just going to show you how to play the parts, and after that I\'ll show you in which order.

Verse:

----------------------------------------------------------------|
--------------------------------2-2---------2-2---2-2---2-0-----|
5-5---------5-5---5-5---5-3-0-------------------------------2---| x3
----------------------------------------------------------------|

----------------------------------------------------------------|
----------------------------------------------------------------|
5-5---------5-5---5-5---5-3-0---0-0---------0-0---0-0---0-0---0-| x1
----------------------------------------------------------------|


Chorus:

----------------------------------------------------------------|
----------------------------------------------------------------|
5-5---------5-5---5-5---5-3-0---5-5---------5-5---5-5---5-3-0---| x1
----------------------------------------------------------------|

----------------------------------------------------------------|
2-2---------2-2---2-2---2-0-----2-2---------2-2---2-2---2-0-----|
----------------------------2-------------------------------2---| x1
----------------------------------------------------------------|


Bridge:

----------------------------------------------------------------|
--------------------------------------------------------------0-|
2-2---------2-2---2-2-----------2-2---------2-2---2-2-------2---| x1
----------------------------0-2---------------------------------|

----------------------------------------------------------------|
2-2---------2-2---2-2---2-0-----2-2---------2-2---2-2-----2-0---|
----------------------------2---------------------------------2-| x1
----------------------------------------------------------------|

----------------------------------------------------------------|
--------------------------------------------------------------0-|
2-2---------2-2---2-2-----------2-2---------2-2---2-2-------2---| x1
----------------------------0-2---------------------------------|

----------------------------------------------------------------|
2-2---------2-2---2-2---2-0-------------------------------------|
----------------------------2---7-7---------7-0---7-0-----0-5-2-| x1
--------------------------------------------------------2-------|

And now in which order you play them...

Chorus (intro) x2

Verse x1

Chorus x2

Verse x1

Chorus x2

Bridge x1

Chorus until the song stops.
Добавлено: 27.04.2012
Другие материалы по этой песне:
  • Аккорды и текст

Страница создана 27.04.2012
http://primanota.ru/foo-fighters/kung-fu-fightin-chords.htm
Привет, Гость.
Предлагаем пройти революционный курс по гитаре.
Подарок от PrimaNota.Ru, забирай!