PrimaNota.ru - самый крупный в мире бесплатный архив песенных текстов, аккордов, табулатур и нот


Foo Fighters - Kiss The Bottle - текст песни, бас-таба, видео

Регистрация Запомнить меня
Войти через:  Facebook Google Twitter Vk Yandex Mail.ru

Foo Fighters - Kiss The Bottle - текст песни, бас-таба, видео

Печатать
Просмотров: 83
-------------------------------------------------------------------------------
                             Kiss The Bottle - Foo Fighters
-------------------------------------------------------------------------------
Tabbed by: robandrews95

Tuning: Drop D

 Intro
G|---------------------------------------------------------------------------|
D|---------------------------------------------------------------------------|
A|--------3-3-3-3---------3-3-3-3--------------------------------------------|
D|5-5-5-5---------5-5-5-5----------------------------------------------------|

 1st Verse 1st Bar
G|---------------------------------------------------------------------------| (Substitute this for the 
D|---------------------------------------------------------------------------|  first bar in the first 
A|---------------------------------55555555555555553333333333333333----------|  verse)
D|-5---------------2222222222222222------------------------------------------|  <---(let 5 ring)
 
Main Verse
G|---------------------------------------------------------------------------| x2
D|---------------------------------------------------------------------------|
A|---------------------------------55555555555555553333333333333333----------|
D|-55555555555555552222222222222222------------------------------------------|

G|---------------------------------------------------------------------------| 
D|---------------------------------------------------------------------------|
A|---------------------------------55555555555555553333333333333333----------|
D|-55555555444444442222222222222222------------------------------------------|

G|---------------------------------------------------------------------------|
D|---------------------------------------------------------------------------|
A|---------------------------------55555555555555553333333333333333----------|
D|-55555555555555552222222222222222------------------------------------------|

 Pre Chorus
G|---------------------------------------------------------------------------| x2
D|---------------------------------------------------------------------------|
A|-----------------3333333333333333----------------0000000033333333----------|
D|-2222222255555555----------------2222222255555555--------------------------|

 Chorus
G|---------------------------------------------------------------------------| x2
D|---------------------------------------------------------------------------|
A|-----------------3-3-3-3-3-3-3-3-----------------3-3-3-3-3-3-3-3-----------|
D|-5-5-5-5-5-5-5-5-----------------5-5-5-5-5-5-5-5---------------------------|

 Finish On
G|---------------------------------------------------------------------------|
D|---------------------------------------------------------------------------|
A|---------------------------------------------------------------------------|
D|-5-------------------------------------------------------------------------| <---(Let it ring)


Order:
 
 Intro
 Verse
 Pre Chorus
 Chorus
 Verse
 Pre Chorus
 Chorus x2


| /  slide up
| \  slide down
| h  hammer-on
| p  pull-off
| ~  vibrato
| +  harmonic
| x  Mute note
===============================================================================
Добавлено: 14.09.2015
Другие материалы по этой песне:
  • Аккорды и текст

Страница создана 02.12.2014
http://primanota.ru/foo-fighters/kiss-bottle-chords.htm
Привет, Гость.
Предлагаем пройти революционный курс по гитаре.
Подарок от PrimaNota.Ru, забирай!