PrimaNota.ru - самый крупный в мире бесплатный архив песенных текстов, аккордов, табулатур и нот


Foo Fighters - Disenchanted Lullaby - аккорды и текст, таба, бас-таба, видео

Регистрация Запомнить меня
Войти через:  Facebook Google Twitter Vk Yandex Mail.ru

Foo Fighters - Disenchanted Lullaby - аккорды и текст, таба, бас-таба, видео

Печатать
Просмотров: 241
Уроки эстрадного вокала в Санкт-Петербурге
Авторы: Dave Grohl, Chris Shiflett, Nate Mendel, Taylor Hawkins

Disenchanted Lullaby
Foo Fighters
		   DISENCHANTED LULLABY-Foo Fighters

This song follows a very basic pattern, basically just the chord progression B7 to E to D for the entire song.


     INTRO- this riff continues throughout, with the bass playing the progression B to
E to D underneath it.

e--------------------2-------------------------------2--------------
b-------------------------------------------------------------------
g------------2---4------4---2---------------2---4--------4------2---
D-------------------------------------------------------------------
A--0----2-------------------------0---2------------------------------
E-------------------------------------------------------------------



CHORUS- listen to the cd for rythyms

e------------7-------7-----------
b------------10------10----------
g------------8-------8------------
D------------7-------7------------   x3  then
A------------9-------9------------
E---5-5-6-7----------7------------


e----------7-------5----------------------
b----------9-------7----------------------
g----------9-------7----------------------
D----------9-------7----------------------
A----------7-------5----------------------
E--5-5-6---------------------------------

BRIDGE-
the bridge is just the chords B major and E major repeated over and over again



thats about it, pretty basic song really

cheers,

alistair

iwontforgetthisone@hotmail.com     
Добавлено: 09.09.2013
Другие материалы по этой песне:

Страница создана 05.03.2012
http://primanota.ru/foo-fighters/disenchanted-lullaby-chords.htm
Привет, Гость.
Предлагаем пройти революционный курс по гитаре.
Подарок от PrimaNota.Ru, забирай!