PrimaNota.ru - самый крупный в мире бесплатный архив песенных текстов, аккордов, табулатур и нот


Fonija - Se Ushte Zhiv - аккорды и текст, видео

Регистрация Запомнить меня
Войти через:  Facebook Google Twitter Vk Yandex Mail.ru

Fonija - Se Ushte Zhiv - аккорды и текст, видео

Печатать
Просмотров: 80
Se Ushte Zhiv
Fonija
C#5* (x465xx)

G#5                      F#5       C#5    
Ja gledam vo ochite, od nea najmnogu se plashime
Se drzham silno za rogovite
Se trudime da se drzhime shto podaleku, zar ne?
                                  F#5
Chekam vo sekoj mig da me pokrie...

F#5 C#5 C5 Bb5 G#5
F#5 C#5 C#5*
F#5 C#5 C5 Bb5 G#5
F#5 C#5 C#5*
D5

D#5                   G#5
I koga vecherta kje proba da ja izmie
D#5                           C#5         G#5
Maskata od tvoeto lice i da te priblizhi do niv
D#5                  G#5
Kazhi go ona shto go mislish site ovie godini
D#5            C#5         G#5   
I seti se deka se ushte si zhiv,
C#5            G#5     
Ti se ushte si zhiv...
D#5          Bb5         C#5
I ajde svrti se kon niv!

Solo:

e|--------------------------------8-----9-----11--9--8---11--9--8h9p8-------|
B|--9-9-9-9-11--11--11-9-8-9~~~~-----9-----9---------------------------9----|
G|--------------------------------------------------------------------------|
D|--------------------------------------------------------------------------|
A|--------------------------------------------------------------------------|
E|--------------------------------------------------------------------------|

e|--------------------------------------------------------------------------|
B|--------------------------------------------------------------------------|
G|--8--6--5-----------------------------8--6--5-----------------------------|
D|-----------6-6-6--8-8-8-6-5-6------------------6-6-6--8-8-8-6-5-6---------|
A|--------------------------------------------------------------------------|
E|--------------------------------------------------------------------------|

F#5                  C#5
Go slusham prekorot, go sledam chekorot
No sakam da sum sloboden
Go baram ona shto me upravuva, ugnetuva
C#5        D5             
Zasekogash da go unishtam!

D#5                   G#5
I koga vecherta kje proba da ja izmie
D#5                           C#5         G#5
Maskata od tvoeto lice i da te priblizhi do niv
D#5                  G#5
Kazhi go ona shto go mislish site ovie godini
D#5            C#5         G#5   
I seti se deka se ushte si zhiv,
C#5            G#5     
Ti se ushte si zhiv...
D#5          Bb5         
I ajde svrti se kon niv!

C#5 C5 Bb5 F#5 G#5 G5 F5 C#5 D#5
Добавлено: 22.09.2013
Другие материалы по этой песне:
  • Аккорды и текст

Страница создана 22.09.2013
http://primanota.ru/fonija/se-ushte-zhiv-chords.htm
Привет, Гость.
Предлагаем пройти революционный курс по гитаре.
Подарок от PrimaNota.Ru, забирай!