PrimaNota.ru - самый крупный в мире бесплатный архив песенных текстов, аккордов, табулатур и нот


Folly - Repeat, I Repeat, Repeat - бас-таба, видео

Регистрация Запомнить меня
Войти через:  Facebook Google Twitter Vk Yandex Mail.ru

Folly - Repeat, I Repeat, Repeat - бас-таба, видео

Печатать
Просмотров: 209
Уроки эстрадного вокала в Санкт-Петербурге
Band: Folly
Song: Repeat, I Repeat, Repeat
Album: Insanity Later
Tabbed by: choke383
Drop D Tuning: GDAD


0:06
G|--------------------------------------------------------------------|
D|-------------------------------------------------------------565----|
A|-----------------------------------------------------------56---65--|
D|00000----00000----00000----00000----00000----00000----00000---------|

G|-------------------------------------------------------------|
D|-------------------------------------------------------------|
A|-------------------------------------------------------------|
D|00000----00000----00000----00000----00000----00000----00000--|

G|--------------------------------------------------------|
D|--565------565------565------565-----------------565----|
A|56---65--56---65--56---65--56---65-------------56---65--|
D|-------87-------87-------87-------8765430345678---------|


0:35
G|-------------------------------------|
D|-----5--------5h65-----5-------------|
A|--5h6------5h6------5h6------5h65----|
D|0-----0-0-0-------0-----0-0-0----87--|x4
(0:54)
G|-----------------------------------------------------------------------|
D|-----------------------------------------------------------------------|
A|----------------------------------------------------------------565----|
D|00----00-0--------00----00-0--------00----00-0--------00----00-0---87--|


1:05
G|------------------------------------|
D|------------------------------------|
A|---------------5--------------------|
D|00---00---00--0--56666666666666666--|

G|------------------------------------|
D|------------------------------------|
A|---------------5--------------------|
D|000000000000000--56666666666666666--|
     ...  ...  ...  <--triplets
G|------------------------------------|
D|------------------------------------|
A|---------------5--------------------|
D|00---00---00--0--56666666666666666--|

G|----------------------------|
D|----------------------------|
A|---------------5------------|
D|000000000000000--566666666--|
     ...  ...  ...  <--triplets
G|---------|
D|---------|
A|---5~----|
D|---------|


1:37
G|-------------------|
D|-------------------|
A|1---0-4-5----------|
D|----------------0--|

G|----------------------------------------|
D|----------------------------------------|
A|1---0-4-555555555555545555555455555555--|
D|----------------------------------------|


1:57
G|--------------------------------|
D|--------------------------------|
A|--------------------------------|
D|000------000------000------000--|
(2:07)
G|2-2--2-3-5-32-2-2------------|
D|-3-------------3---3-5-3-20--| (play on D7 if prefered)
A|-----------------------------|
D|-----------------------------|x4

G|32---------|
D|--3--5532--|
A|-----------|
D|-----------|


2:35
G|---------------------------------------------------------------|
D|---------------------------------------------------------------|
A|---------------------------------------------------------------|
D|00--00--00--00--00--0-555000555000555000555000-00--00--00--00--|


2:45
G|--------| |-----------|
D|--------| |-----------|
A|--------| |-----------|
D|000-00--| |-00000-00--|x7
              ...

2:58
G|------------------|
D|------------------|
A|------------------|
D|0000000000000000--|

G|------------------------------------------------------------------|
D|------------------------------------------------------------------|
A|------------------------------------------------------------------|
D|0000000000000000888888888888888800000000000000008888888888888888--|

G|------------------------------------------------------------------|
D|------------------------------------------------------------------|
A|--------------------------------5555555555555555------------------|
D|--------000000008888888888888888----------------8888888888888888--|


3:30
G|-----------------------------------------------------------------------------|
D|-----------------------------------------------------------------------------|
A|5555555555555555----------------5555555555555555-----------------------------|
D|----------------8888888888888888----------------888888888888888888888888888--|


3:42
G|---------------------------------------|
D|---------------------------------------|
A|54-34--------54-34---54-34-------------|
D|-----0-00-00------000-----0-000000000--|x2


3:57
G|------------------------------------|
D|------------------------------------|
A|6-5--4-5----------6-5-4-5-----------|
D|---------0-0--0-0---------0-0--0-0--|x4

G|------------------------------------|
D|------------------------------------|
A|6-5--4-5----------------------------|
D|---------0-0--0-0---------0-0--0-0--|



Any comments, questions or jokes send to style444@hotmail.com
Добавлено: 20.04.2012
Другие материалы по этой песне:

Страница создана 20.04.2012
http://primanota.ru/folly/repeat-i-repeat-repeat-chords.htm
Привет, Гость.
Предлагаем пройти революционный курс по гитаре.
Подарок от PrimaNota.Ru, забирай!