PrimaNota.ru - самый крупный в мире бесплатный архив песенных текстов, аккордов, табулатур и нот


Folly - Please Dont Shoot The Piano Player Hes Doing The Best He Can - таба, бас-таба, видео

Регистрация Запомнить меня
Войти через:  Facebook Google Twitter Vk Yandex Mail.ru

Folly - Please Dont Shoot The Piano Player Hes Doing The Best He Can - таба, бас-таба, видео

Печатать
Просмотров: 158
Уроки эстрадного вокала в Санкт-Петербурге
Band: Folly
Song: Please Don't Shoot The Piano PLayer, He's Doing The Best He Can
Album: Insanity Later
Tabbed by: choke383
Normal Tuning: ebGDAD




---------------The Morning Song


Here's the intro of the cd that leads into the piano player


E|-----------------------------|
B|-----------------------------|
G|---1--0----1-0----1-0---1-0--|
D|2--------2------2-----2------|
A|-----------------------------|
D|-----------------------------|x4

E|-----------------------------|
B|-----------------------------|
G|-----------------------------|
D|---3--5----3-5----3-5---3-5--|
A|4--------4------4-----4------|
D|-----------------------------|

E|-----------------------------|
B|-----------------------------|
G|---1--0----1-0----1-0---1-0--|
D|2--------2------2-----2------|
A|-----------------------------|
D|-----------------------------|x4

E|-----------------------------|
B|-----------------------------|
G|-----------------------------|
D|---3--5----3-5----3-5---3-5--|
A|4--------4------4-----4------|
D|-----------------------------|x2


0:36
E|--------------------------------------------------|
B|--------------------------------------------------|
G|---3--0-------3--0---1---0------3--5--------4--5--|
D|1----------1-----------------4---------4-3--------|
A|--------------------------------------------------|
D|--------------------------------------------------|x2

E|-------|
B|-------|
G|---4---|
D|---4---|
A|---3---|
D|-------|


--------------Piano Player



Guitar 1

E|------0-0------------------0-0-----------------------0-0------------------0-0-|
B|------6-6------------------6-6-----------------------6-6------------------6-6-|
G|------------------------------------------------------------------------------|
D|----------320------------------320-------2/3-------------320------------------|
A|2-2-2--------32--222-222-2--------32--2/3---222-2-22--------32--222-222-2-----|
D|2-2-2----------54222-222-2----------54------222-2-22----------54222-222-2-----|
  . . .            ... ... .                  ... . ..            ... ... .

E|----------------------|
B|----------------------|
G|------------------43--|
D|320-------------21----|
A|---32--------023------|
D|-----5422445----------|


0:15
E|--------0-0-0----------------|
B|--------6-6-6----------------|
G|-----------------------------|
D|--------------3-2-0----------|
A|22-22-2-------------3-2------|
D|22-22-2-----------------5-4--|x4
  .. .. .

0:27
E|-------------------------------------------|
B|-------------------------------------------|
G|-------------------------------------------|
D|---------5--5-5-5---4-5-4--44-4------------|
A|2--2-2-2-3--3-3-3-5-----2--22-2--5-5--7-7--|
D|2--2-2-2-------------------------5-5--7-7--|
     . . .    . . .

E|-------------------------------------------|
B|-------------------------------------------|
G|-------------------------------------------|
D|---------5---5--5---4-5-4--44-4------------|
A|2---2--2-3---3--3-5-----2--22-2--5-5--7-7--|
D|2---2--2-------------------------5-5--7-7--|
      .  .     .  .

E|------------------------------------------------------------|
B|------------------------------------------------------------|
G|9--9--9-9--9--8/9--9--1111-11-12--12--1111-11-7--7--6-6--6--|
D|x--x--x-x--x--x-x--x--x-x--x--x---x---x-x--x--x--x--x-x--x--|
A|7--7--7-7--7--6/7--7--9-9--9--10--10--9-9--9--5--5--4-4--4--|
D|------------------------------------------------------------|x2


0:56
E|----------------------------------------------------------------------------|
B|----------------------------------------------------------------------------|
G|-----------------------------------------------------------------------7----|
D|----1-------1-------1-------1-------1-------1-------1---(1)/10-10-9------9--|
A|--2-------2-------2-------2-------2-------2-------2-----------------10------|
D|2-------2-------2-------2-------2-------2-------2---------------------------|

E|-------------------------------------------------------------|
B|-------------------------------------------------------------|
G|-------------------------------------------------------------|
D|--10-7-9----7---10-7-9----9-10-9----10-9------10-------------|
A|7--------10---7--------10--------10------10-7----7-22--22----|
D|---------------------------------------------------22--22----|
                                                     ..  ..


E|---------------------------------------------------------------------|
B|---------------------------------------------------------------------|
G|---------------------------------------------------------------------|
D|---------------------------------------------------------------------|
A|777-7--777-7--777-7--777-7--777-7--777-7--777-7--777-7--666-6--666-6-|
D|---------------------------------------------------------------------|
  ... .  ... .  ... .  ... .  ... .  ... .  ... .  ... .  ... .  ... .
E|--------------------------------------|
B|--------------------------------------|
G|----------------------------------8~--|
D|555-5--555-5--------------------------|
A|--------------777-7--777-7--777-7-----|
D|--------------------------------------|x2
  ... .  ... .  ... .  ... .  ... .

E|-------------------------------------------------------------|
B|-------------------------------------------------------------|
G|-------------------------------------------------------------|
D|--10-7-9----7---10-7-9----9-10-9----10-9------10-------------|
A|7--------10---7--------10--------10------10-7----7-22--22----|
D|---------------------------------------------------22--22----|
                                                     ..  ..

1:57
E|-----------------------|
B|-----------------------|
G|-----------------------|
D|3-2-0------------------|
A|------3-2-0-----22-22--|
D|------------5-4-22-22--|x4
                  .. ..

2:07
E|--------------------------|
B|--------------------------|
G|--------------------------|
D|--------------------------|
A|2-2-2-2--222-2--2-2--2-2--|
D|2-2-2-2--222-2--2-2--2-2--|x3
  . . . .  ... .  . .  . .
E|---------------------|
B|---------------------|
G|---------------------|
D|---------------------|
A|2-2-2-2--222-2--2-2--|
D|2-2-2-2--222-2--2-2--|
  . . . .  ... .  . .  


2:18
E|0-0-2p0-3p0-5p0-7p0-8p0-7p0-5p0-3p0-2p0-3p0-5p0-7p0-8p0-10p0-8p0-7p0-5p0-3p0-2p0-|
B|---------------------------------------------------------------------------------|
G|---------------------------------------------------------------------------------|
D|---------------------------------------------------------------------------------|
A|---------------------------------------------------------------------------------|
D|---------------------------------------------------------------------------------|

E|3p0-5p0-7p0-8p0-10p0-12p0-10p0-8p0-7p0-5p0-3p0-2p0--|
B|----------------------------------------------------|
G|----------------------------------------------------|
D|----------------------------------------------------|
A|----------------------------------------------------|
D|----------------------------------------------------|x3


E|------------------------------------------------------------|
B|------------------------------------------------------------|
G|9--9--9-9--9--8/9--9--1111-11-12--12--1111-11-7--7--6-6--6--|
D|x--x--x-x--x--x-x--x--x-x--x--x---x---x-x--x--x--x--x-x--x--|
A|7--7--7-7--7--6/7--7--9-9--9--10--10--9-9--9--5--5--4-4--4--|
D|------------------------------------------------------------|x2


2:56
E|------------------------------------------------------------------------------------|
B|------------------------------0---------------------------0-------------------------|
G|--0-0----0-0----0-0----0--0--0--0----0-0----0-0----0--0--0--0----0------0------0--0-|
D|-0------0------0------0--0--0-------0------0------0--0--0-------0------0------0--0--|
A|5--5-5\3--3-3/8--8-8\3--6--5---5-5\3--3-3/8--8-8\3--6--5---5-5\3--3-3/8--8-8\3--6---|
D|------------------------------------------------------------------------------------|

E|---------------------------------------|
B|---0-----------------------------------|
G|--0--0----0-0----0-0------0------------|
D|-0-------0------0-------0---0---0---0--|
A|5---5-5\3--3-3/8--8-8\3-------6---6----|
D|---------------------------------------|


3:24
E|-------------------------|
B|-------------------------|
G|-------------------------|
D|-------------------------|
A|0-0--0-0--0-0-0-0-000-0--|
D|0-0--0-0--0-0-0-0-000-0--|x2
  . .  . .  . . . . ... .

E|-------------------------|
B|-------------------------|
G|-------------------------|
D|-------------------------|
A|0-0-------0-0-0-0-000-0--|
D|0-0-------0-0-0-0-000-0--|
  . .       . . . . ... .

E|-------------------------|
B|-------------------------|
G|-------------------------|
D|-------------------------|
A|0-0--0-0--0-0-0-0-000-0--|
D|0-0--0-0--0-0-0-0-000-0--|
  . .  . .  . . . . ... .

E|------------------|
B|------------------|
G|--0---0---0--0-0--|
D|-0---0---0--------|
A|5---3---8---3-6---|
D|------------------|x4

E|----------|
B|----------|
G|--0-------|
D|-0-0-0-0--|
A|3---6-6---|
D|----------|


Guitar 2

E|------0-0------------------0-0-----------------------0-0------------------0-0-|
B|------6-6------------------6-6-----------------------6-6------------------6-6-|
G|------------------------------------------------------------------------------|
D|----------320------------------320-------2/3-------------320------------------|
A|2-2-2--------32--222-222-2--------32--2/3---222-2-22--------32--222-222-2-----|
D|2-2-2----------54222-222-2----------54------222-2-22----------54222-222-2-----|
  . . .            ... ... .                  ... . ..            ... ... .

E|----------------------|
B|----------------------|
G|----------------------|
D|320-------------21----|
A|---32--------023--21--|
D|-----5422445----------|


0:27
E|-------------------------------------------|
B|-------------------------------------------|
G|-------------------------------------------|
D|---------5--5-5-5---4-5-4--44-4------------|
A|2--2-2-2-3--3-3-3-5-----2--22-2--5-5--7-7--|
D|2--2-2-2-------------------------5-5--7-7--|
     . . .    . . .

E|-------------------------------------------|
B|-------------------------------------------|
G|-------------------------------------------|
D|---------5---5--5---4-5-4--44-4------------|
A|2---2--2-3---3--3-5-----2--22-2--5-5--7-7--|
D|2---2--2-------------------------5-5--7-7--|
      .  .     .  .

E|-----------------------------------------------|
B|-----------------------------------------------|
G|-----------------------------------------------|
D|------------5--5--7--7--4--4--4--4-------------|
A|2--2--2--2--3--3--5--5--2--2--2--2--3--3--5--5-|
D|2--2--2--2--------------------------3--3--5--5-|

E|---------------------------------------------|
B|---------------------------------------------|
G|---------------------------------------------|
D|------------5--5--7--7--4--4--4--4-----------|
A|2--2--2--2--3--3--5--5--2--2--2--2--3--3--5--|
D|2--2--2--2--------------------------3--3--5--|


0:56
E|---------------------------------------|
B|---------------------------------------|
G|---------------------------------------|
D|------1---------1---------1---------1--|
A|---2---------2---------2---------2-----|
D|2---------2---------2---------2--------|

E|----------------------------------------------------|
B|----------------------------------------------------|
G|--5-2-4-0-2---5-2-4-0-2----5-2-4-0-2----5--2--4--0--|
D|2-----------2------------2-----------2--------------|
A|----------------------------------------------------|
D|----------------------------------------------------|


1:17
E|x-7-x-7-x-7-x-7-x-7-x-7-x-7-x-7-x-7-x-7-x-7-x-7-x-7-x-7-x-7-x-7-|
B|x-8-x-8-x-8-x-8-x-8-x-8-x-8-x-8-x-8-x-8-x-8-x-8-x-8-x-8-x-8-x-8-|
G|x-9-x-9-x-9-x-9-x-9-x-9-x-9-x-9-x-9-x-9-x-9-x-9-x-9-x-9-x-9-x-9-|
D|----------------------------------------------------------------|
A|----------------------------------------------------------------|
D|----------------------------------------------------------------|

E|x-6-x-6-x-6-x-6-x-6-x-6-x-6-x-6-x-7-x-7-x-7-x-7-------------|
B|x-7-x-7-x-7-x-7-x-7-x-7-x-7-x-7-x-8-x-8-x-8-x-8-------------|
G|x-8-x-8-x-8-x-8-x-8-x-8-x-8-x-8-x-9-x-9-x-9-x-9-------------|
D|------------------------------------------------------------|
A|------------------------------------------------2-2----2-2--|
D|------------------------------------------------2-2----2-2--|
                                                  . .    . .
E|x-7-x-7-x-7-x-7-x-7-x-7-x-7-x-7-x-7-x-7-x-7-x-7-x-7-x-7-x-7-x-7-|
B|x-8-x-8-x-8-x-8-x-8-x-8-x-8-x-8-x-8-x-8-x-8-x-8-x-8-x-8-x-8-x-8-|
G|x-9-x-9-x-9-x-9-x-9-x-9-x-9-x-9-x-9-x-9-x-9-x-9-x-9-x-9-x-9-x-9-|
D|----------------------------------------------------------------|
A|----------------------------------------------------------------|
D|----------------------------------------------------------------|

E|x-6-x-6-x-6-x-6-x-6-x-6-x-6-x-6-x-7-x-7-x-7-x-7--x---6~----|
B|x-7-x-7-x-7-x-7-x-7-x-7-x-7-x-7-x-8-x-8-x-8-x-8--x---7~----|
G|x-8-x-8-x-8-x-8-x-8-x-8-x-8-x-8-x-9-x-9-x-9-x-9--x---8~----|
D|-----------------------------------------------------------|
A|-----------------------------------------------------------|
D|-----------------------------------------------------------|x2

E|x-7-x-7-x-7-x-7-x-7-x-7-x-7-x-7-x-7-x-7-x-7-x-7-x-7-x-7-x-7-x-7-|
B|x-8-x-8-x-8-x-8-x-8-x-8-x-8-x-8-x-8-x-8-x-8-x-8-x-8-x-8-x-8-x-8-|
G|x-9-x-9-x-9-x-9-x-9-x-9-x-9-x-9-x-9-x-9-x-9-x-9-x-9-x-9-x-9-x-9-|
D|----------------------------------------------------------------|
A|----------------------------------------------------------------|
D|----------------------------------------------------------------|

E|x-6-x-6-x-6-x-6-x-6-x-6-x-6-x-6-x-7-x-7-x-7-x-7-------------|
B|x-7-x-7-x-7-x-7-x-7-x-7-x-7-x-7-x-8-x-8-x-8-x-8-------------|
G|x-8-x-8-x-8-x-8-x-8-x-8-x-8-x-8-x-9-x-9-x-9-x-9-------------|
D|------------------------------------------------------------|
A|------------------------------------------------2-2----2-2--|
D|------------------------------------------------2-2----2-2--|
                                                  . .    . .

1:57
E|-----------------------|
B|-----------------------|
G|-----------------------|
D|3-2-0------------------|
A|------3-2-0-----22-22--|
D|------------5-4-22-22--|x4
                  .. ..

2:07
E|--------------------------|
B|--------------------------|
G|--------------------------|
D|--------------------------|
A|2-2-2-2--222-2--2-2--2-2--|
D|2-2-2-2--222-2--2-2--2-2--|x3
  . . . .  ... .  . .  . .
E|---------------------|
B|---------------------|
G|---------------------|
D|---------------------|
A|2-2-2-2--222-2--2-2--|
D|2-2-2-2--222-2--2-2--|
  . . . .  ... .  . .  

2:18
E|------------------------------------------------------------------|
B|------------------------------------------------------------------|
G|------------------------------------------------------------------|
D|----------------5~------7~------4~--------------------------------|
A|2~--------------3~------5~------2~--------------5~------7---7777--|
D|2~----------------------------------------------5~------7---7777--|

E|------------------------------------------------------------------|
B|------------------------------------------------------------------|
G|------------------------------------------------------------------|
D|----------------55555555777777774444444444444444------------------|
A|2222222222222222333333335555555522222222222222225555555577777777--|
D|2222222222222222--------------------------------5555555577777777--|x2

E|--------------------------------------------------------------|
B|--------------------------------------------------------------|
G|--------------------------------------------------------------|
D|----------------55555555777777774444444444444444--------------|
A|222222222222222233333333555555552222222222222222555555557~~~--|
D|2222222222222222--------------------------------555555557~~~--|


2:56
E|------------------------------------------------------------------------------------|
B|------------------------------0---------------------------0-------------------------|
G|--0-0----0-0----0-0----0--0--0--0----0-0----0-0----0--0--0--0----0------0------0--0-|
D|-0------0------0------0--0--0-------0------0------0--0--0-------0------0------0--0--|
A|5--5-5\3--3-3/8--8-8\3--6--5---5-5\3--3-3/8--8-8\3--6--5---5-5\3--3-3/8--8-8\3--6---|
D|------------------------------------------------------------------------------------|

E|----------------------------------------|
B|---0------------------------------------|
G|--0--0----0-0----0-0------0--------0----|
D|-0-------0------0-------0--------0---0--|
A|5---5-5\3--3-3/8--8-8\3-----3-/6--------|
D|----------------------------------------|


3:24
E|-------------------------|
B|-------------------------|
G|-------------------------|
D|-------------------------|
A|0-0--0-0--0-0-0-0-000-0--|
D|0-0--0-0--0-0-0-0-000-0--|x2
  . .  . .  . . . . ... .

E|-------------------------|
B|-------------------------|
G|-------------------------|
D|-------------------------|
A|0-0-------0-0-0-0-000-0--|
D|0-0-------0-0-0-0-000-0--|
  . .       . . . . ... .

E|-------------------------|
B|-------------------------|
G|-------------------------|
D|-------------------------|
A|0-0--0-0--0-0-0-0-000-0--|
D|0-0--0-0--0-0-0-0-000-0--|
  . .  . .  . . . . ... .

E|------------------|
B|------------------|
G|--0---0---0--0-0--|
D|-0---0---0--------|
A|5---3---8---3-6---|
D|------------------|x4

E|----------|
B|----------|
G|----------|
D|5~---8~---|
A|3~---6~---|
D|----------|



Any comments, questions or jokes send to style444@hotmail.com
Добавлено: 10.06.2012
Вам также может быть интересно:
Другие материалы по этой песне:
  • Аккорды и текст

Страница создана 11.03.2012
http://primanota.ru/folly/please-dont-shoot-the-piano-player-hes-doing-the-best-he-can-chords.htm
Привет, Гость.
Предлагаем пройти революционный курс по гитаре.
Подарок от PrimaNota.Ru, забирай!