PrimaNota.ru - самый крупный в мире бесплатный архив песенных текстов, аккордов, табулатур и нот


Folly - Piano Player - текст песни, таба, видео

Регистрация Запомнить меня
Войти через:  Facebook Google Twitter Vk Yandex Mail.ru

Folly - Piano Player - текст песни, таба, видео

Печатать
Просмотров: 143
Уроки эстрадного вокала в Санкт-Петербурге
----------------------------------------------------------------------------
                        The Piano Player - Folly
----------------------------------------------------------------------------
Tabbed by: Luke Ellis
Email: sparda716@yahoo.com

Tuning: Drop D

Notes-This band has two guitar players, im tabbing out both but most can be aranged for one.
      I DID NOT PUT EXACT STRUMING PATTERNS OR HOW MEANY TIMES TO STRUM IT!! so listen 
the
      song while learning this, its verry easy to pick up. please rate
 key
~:let ring
.:palm mute
":tremol pick
x:mute note

Intro
Guitar 1 (distortion)

E|------------------------------------------------------------------|
B|---------6-6-6-6----------------------6-6-6-6---------------------|
G|---------9-9-9-9----------------------9-9-9-9---------------------|
D|-2---------------3-2-0--------2---------------3-2-0-----------2/3-|
A|-2-2-2-2--------------3-2-----2-2-2-2--------------3-2-----2/3----|
D|-2-2-2-2------------------5-4-2-2-2-2-----------------5-4---------|
     . . .                        . . .
                                                                      the forth time you 
intro dont
                                                                      do the slide from 
to 3 go right
Guitar 2 (distortion)                                                 to the part after intro

E|------------------------------------------------------------------|
B|---------6-6-6-6----------------------6-6-6-6---------------------|
G|---------9-9-9-9----------------------9-9-9-9---------------------|
D|-2---------------3-2-0--------2---------------3-2-0-----------2/3-|
A|-2-2-2-2--------------3-2-----2-2-2-2--------------3-2-----2/3----|
D|-2-2-2-2------------------5-4-2-2-2-2-----------------5-4---------|
     . . .                        . . .

part after intro (distortion)
guitar one
E|----------------------|
B|----------------------|
G|----------------------|
D|-------------2-1------|
A|-------0-2-3-----2-1~-|
D|-2-4-5----------------|

back to intro but no longer slide from 2 to 3 in the intro the go to this.

guitar 1 and 2 (distortion)

E|--------------------------------------------|
B|--------------------------------------------|
G|--------------------------------------------|
D|-2-----5-5-5--4-5-4-4-4---------------------|
A|-2-2-2-3-3-3-5----2-2-2-5-5-5-5-5-7-7-7-7-7-|
D|-2-2-2------------------5-5-5-5-5-7-7-7-7-7-|
     . .   . .

after doing that a few times go to this

guitar 2(distortion)

E|-----------------------------------------------------------------------------|
B|-----------------------------------------------------------------------------|
G|-----------------------------------------------------------------------------|
D|-----------5-5-5-5-5-5-5-7-7-7-7-7-7-4-4-4-4-4-4-----------------------------|
A|-2-2-2-2-2-3-3-3-3-3-3-3-5-5-5-5-5-5-2-2-2-2-2-2-5-5-5-5-5-5-5-7-7-7-7-7-7-7-|
D|-2-2-2-2-2---------------------------------------5-5-5-5-5-5-5-7-7-7-7-7-7-7-|

guitar 1(distortion)

E|------------------------------------------------------------------------------|
B|------------------------------------------------------------------------------|
G|-9-9-9-9-9-9-9-9-9-9-9-9-11-11-11-11-11-11-12-12-12-12-11-11-11-7-7-7-7-7-6-6-|
D|-x-x-x-x-x-x-x-x-x-x-x-x--x--x--x--x--x--x--x--x--x--x--x--x--x-x-x-x-x-x-x-x-|
A|-7-7-7-7-7-7-7-7-7-7-7-7--9--9--9--9--9--9-10-10-10-10--9--9--9-5-5-5-5-5-4-4-|
D|------------------------------------------------------------------------------|

do that a few times then go to this

guitar 2 (light distortion)

E|-----------------------------------------|
B|-----------------------------------------|
G|-----------------------------------------|
D|---1~---1~---1~---1~---1~---1~---1~---1~-| do that about for times buy its self then 
one comes in and
A|--2~---2~---2~---2~---2~---2~---2~---2~--| keep playing that under guitar 1.
D|-2~---2~---2~---2~---2~---2~---2~---2~---|

guitar 1 (light distortion)

E|-----------------------------------------|
B|-----------------------------------------|
G|---5-2-4-0-2---5-2-4-0-2---5-2-4-0-2-----|
D|-2-----------2-----------2---------------|
A|-----------------------------------------|
D|-----------------------------------------|

do that then go to this

guitar 2 harmonized part

E|----------------|
B|-------------3--|
G|-------5-4-0--4-|
D|-2//(5)---------|
A|----------------|
D|----------------|

guitar 1

E|-----------|
B|-----------|
G|---5-2-4-0-|
D|-2---------|
A|-----------|
D|-----------|

ska part

guitar 2 (clean)

E|-x-x-7-x-7-x-x-7-x-7-x-x-7-x-7-x-x-7-x-x-7-x-x-7-x-----|
B|-x-x-8-x-8-x-x-8-x-8-x-x-7-x-7-x-x-7-x-x-8-x-x-8-x-----|
G|-x-x-9-x-9-x-x-9-x-9-x-x-8-x-8-x-x-8-x-x-9-x-x-9-x-8~--|
D|-------------------------------------------------------|  guitar 2 does ska part while 
1 tremol picks the
A|-------------------------------------------------------|  musted string them when 
2 hits the 8 guitar one
D|-------------------------------------------------------|  comes in and repeat then go 
breakdown intro
         "         "         "                     "

guitar 1 (light distotion)

E|----------------------------------------------------------|
B|----------------------------------------------------------|
G|--------5-2-2//(4)-0-2--5-2-2//-(4)-0-2-4-5-0-4-5-0---5-0-|
D|-X----2----------------2----------------------------2-----|
A|----------------------------------------------------------|
D|----------------------------------------------------------|
   "

breakdown intro guitars 1 and 2

E|----------------------------------------------|
B|----------------------------------------------|
G|----------------------------------------------|
D|---------3-2-0------------------3-2-0---------|
A|-2-2-2-2------3-2-0-----2-2-2-2------3-2-0----|
D|-2-2-2-2-----------5-4--2-2-2-2-----------5-4-|
   . . . .                . . . .

breakdown guitars 1 and 2

E|-----------------------------------------------|
B|-----------------------------------------------|
G|-----------------------------------------------|
D|-----------------------------------------------|
A|-2-2-2-2-2-2-2-2-2-2-2-2-2-2-2-2-2-2-2-2-2-2-2-|
D|-2-2-2-2-2-2-2-2-2-2-2-2-2-2-2-2-2-2-2-2-2-2-2-|
   . . . . . . . . . . . . . . . . . . . . . . .

interlude

guitar 2 (distortion)

E|--------------------------|
B|--------------------------|
G|----5~-7~-4~--------------|
D|-2~-5~-7~-4~-5~-7~--------|
A|-2~-3~-5~-2~-5~-7~--------|
D|-2~----------5~-7~--------|


guitar 1 (distortion)

E|-0-0-2-0-3-0-5-0-7-0-8-0-7-0-5-0-3-0-2-0-3-0-5-0-7-0-8-0-10-0-8-0-7-0-5-0-3-0-2-|
B|--------------------------------------------------------------------------------|
G|--------------------------------------------------------------------------------|
D|--------------------------------------------------------------------------------|
A|--------------------------------------------------------------------------------|
D|--------------------------------------------------------------------------------|

|0-3-0-5-0-7-0-8-0-10-0-12-0-10-0-8-0-7-0-5-0-3-0-2-0-|
|-----------------------------------------------------|
|-----------------------------------------------------|  continued from top
|-----------------------------------------------------|
|-----------------------------------------------------|
|-----------------------------------------------------|


REPEAT GUITAR ONE AND PLAY THIS UNDER IT


guitar 2 (distortion)

E|-----------------------------------------------------------------------------|
B|-----------------------------------------------------------------------------|
G|-----------------------------------------------------------------------------|
D|-----------5-5-5-5-5-5-5-7-7-7-7-7-7-4-4-4-4-4-4-----------------------------|
A|-2-2-2-2-2-3-3-3-3-3-3-3-5-5-5-5-5-5-2-2-2-2-2-2-5-5-5-5-5-5-5-7-7-7-7-7-7-7-|
D|-2-2-2-2-2---------------------------------------5-5-5-5-5-5-5-7-7-7-7-7-7-7-|

guitar 2 keep playing that and guitar one play this over this


guitar 1 (distortion)

E|-------------------------------------------------------------------------------|
B|-------------------------------------------------------------------------------|
G|-9-9-9-9-9-9-9-9-9-9-9-9-11-11-11-11-11-11-12-12-12-12-11-11-11-7-7-7-7-7-6-6~-|
D|-x-x-x-x-x-x-x-x-x-x-x-x--x--x--x--x--x--x--x--x--x--x--x--x--x-x-x-x-x-x-x-x--|
A|-7-7-7-7-7-7-7-7-7-7-7-7--9--9--9--9--9--9-10-10-10-10--9--9--9-5-5-5-5-5-4-4~-|
D|-------------------------------------------------------------------------------|

soft part guitar 1 (clean with flanger)

E|----------------------------------------------------------------------|
B|--------------------------------------------0-------------------------|
G|--0---0-----0--0------0---0------0---0---0---0---0--0----0--0--0--0~--|
D|-----------0---------0----------0---0-----0-----0-------0-----0--0----|
A|-5--5--5--3--3---3--8---8--8---3---6----5------3--3--3-8--8--3--6-----|
D|----------------------------------------------------------------------| REPEAT A FEW
TIMES BEFOR SLOWING DOWN
                                                                         AND LETTING THE 
G RING

outro breakdown guitarS 1 AND 2 (distorted)

E|-----------------------------------------------------|
B|-----------------------------------------------------|
G|-----------------------------------------------------|
D|-----------------------------------------------------|
A|-0-0-0-0-0-0-0-0-0-0-0-0-0-0-0-0-0-0-0-0-0-0-0-0-0-0-|
D|-0-0-0-0-0-0-0-0-0-0-0-0-0-0-0-0-0-0-0-0-0-0-0-0-0-0-|
   . . . . . . . . . . . . . . . . . . . . . . . . . .  both guitars do that a few times
guitar 1 comes in with this

guitar 1 (light distortion and flanger)

E|-----------------|
B|-----------------|
G|---0--0--0--0--0-|
D|--0--0--0--------|  REPEAT A FEW TIMES
A|-5--3--8--3--6---|
D|-----------------|

ending

guitar 2

E|----------|
B|----------|
G|----5~----|
D|-0~-5~----|
A|-0~-3~----|
D|-0~-------|

GUITAR 1(light distortion and flanger)

E|-----------|
B|-----------|
G|---0----0~-|
D|--0-0--0~--|
A|-3----6~---|  sweep pick last note
D|-----------|
Добавлено: 08.04.2012
Другие материалы по этой песне:
  • Аккорды и текст

Страница создана 05.03.2012
http://primanota.ru/folly/piano-player-chords.htm
Привет, Гость.
Предлагаем пройти революционный курс по гитаре.
Подарок от PrimaNota.Ru, забирай!