PrimaNota.ru - самый крупный в мире бесплатный архив песенных текстов, аккордов, табулатур и нот


Folly - Discussion Is For The Pigs - таба, видео

Регистрация Запомнить меня
Войти через:  Facebook Google Twitter Vk Yandex Mail.ru

Folly - Discussion Is For The Pigs - таба, видео

Печатать
Просмотров: 113
Уроки эстрадного вокала в Санкт-Петербурге
Folly
"Discussion Is For The Pigs"
From the 2004 album "Insanity later"


tuning: (both guitars) Drop-D (D A D G B e)
x = muted note
()= note sustained from earlier


|-1-0-1-2-3-2-1-0-|
|-----------------| X8
|-----------------|
|-----------------|
|-----------------|
|-----------------|


|-----------------|                |-----------------|
|-----------------| X7 (on eighth  |-----------------|
|-----------------|    repeat:)    |-----------------|
|-2-1-2-3-4-3-2-1-|                |-2-1-2-3-4-3-2---|
|-2-1-2-3-4-3-2-1-|                |-2-1-2-3-4-3-2---|
|-2-1-2-3-4-3-2-1-|                |-2-1-2-3-4-3-2---|

|-------------------------|
|-------------------------| X8
|-------------------------|
|-1--0--1--2--3--2--1--0--|
|-1--0--1--2--3--2--1--0--|
|-1--0--1--2--3--2--1--0--|




Gtr. 1:

|-----------------------------|
|-----------------------------| X2
|--7---7-7-7---7-7-7---7-7-7--|
|--x---x-x-x---x-x-x---x-x-x--|
|--5---5-5-5---5-5-5---5-5-5--|
|-----------------------------|





 (starting at 0:48)
 Gtr. 1:
|
|-----------------------------|--------------------------------------|
|-----------------------------|--------------------------------------|
|--7---7-7-7---7-7-7---7-7-7--|--7-7-4---4-4-4---4-4-3---3-3-3---3-3-|
|--x---x-x-x---x-x-x---x-x-x--|--x-x-x---x-x-x---x-x-x---x-x-x---x-x-|
|--5---5-5-5---5-5-4---4-4-4--|--4-4-2---2-2-2---2-2-1---1-1-1---1-1-|
|-----------------------------|--------------------------------------|
|
|Gtr. 2:
|
|-----------------------------|--------------------------------------|
|-----------------------------|--------------------------------------|
|--7---7-7-7---7-7-7---7-7-7--|--7-7-11--111111--111112--121212--1212|
|--x---x-x-x---x-x-x---x-x-x--|--x-x-x---x-x-x---x-x-x---x-x-x---x-x-|
|--5---5-5-5---5-5-4---4-4-4--|--4-4-9---9-9-9---9-9-10--101010--1010|
|-----------------------------|--------------------------------------|



 Gtr. 1:
|
|-----------------------------|--------------------------------------|
|-----------------------------|--------------------------------------|
|--7---7-7-7---7-7-7---7-7-7--|--7-7-4---4-4-4---4-4-3---3-3-3---3-3-|
|--x---x-x-x---x-x-x---x-x-x--|--x-x-x---x-x-x---x-x-x---x-x-x---x-x-|
|--5---5-5-5---5-5-4---4-4-4--|--4-4-2---2-2-2---2-2-1---1-1-1---1-1-|
|-----------------------------|--------------------------------------|
|
|Gtr. 2:
|
|-----------------------------|--------------------------------------|
|-----------------------------|--------------------------------------|
|--7---7-7-7---7-7-7---7-7-7--|--7-7-11--11119---9-9-7---7-7-7---7-7-|
|--x---x-x-x---x-x-x---x-x-x--|--x-x-x---x-x-x---x-x-x---x-x-x---x-x-|
|--5---5-5-5---5-5-4---4-4-4--|--4-4-9---9-9-7---7-7-5---5-5-5---5-5-|
|-----------------------------|--------------------------------------|



 Gtr. 1:
|
|-----------------------------|--------------------------------------|
|-----------------------------|--------------------------------------|
|--7---7-7-7---7-7-7---7-7-7--|--7-7-4---4-4-4---4-4-3---3-3-3---3-3-|
|--x---x-x-x---x-x-x---x-x-x--|--x-x-x---x-x-x---x-x-x---x-x-x---x-x-|
|--5---5-5-5---5-5-4---4-4-4--|--4-4-2---2-2-2---2-2-1---1-1-1---1-1-|
|-----------------------------|--------------------------------------|
|
|Gtr. 2:
|
|-----------------------------|--------------------------------------|
|-----------------------------|--------------------------------------|
|--7---7-7-7---7-7-7---7-7-7--|--7-7-11--111111--111112--121212--1212|
|--x---x-x-x---x-x-x---x-x-x--|--x-x-x---x-x-x---x-x-x---x-x-x---x-x-|
|--5---5-5-5---5-5-4---4-4-4--|--4-4-9---9-9-9---9-9-10--101010--1010|
|-----------------------------|--------------------------------------|



 Gtr. 1:
|
|-----------------------------|--------------------------------------|
|-----------------------------|--------------------------------------|
|--7---7-7-7---7-7-7---7-7-7--|--7-7-4---4-4-4---4-4-3---3-3-3---3-3-|
|--x---x-x-x---x-x-x---x-x-x--|--x-x-x---x-x-x---x-x-x---x-x-x---x-x-|
|--5---5-5-5---5-5-4---4-4-4--|--4-4-2---2-2-2---2-2-1---1-1-1---1-1-|
|-----------------------------|--------------------------------------|
|
|Gtr. 2:
|
|-----------------------------|--------------------------------------|
|-----------------------------|--------------------------------------|
|--7---7-7-7---7-7-7---7-7-7--|--7-7-11--11119---9-9-7-------(7)-----|
|--x---x-x-x---x-x-x---x-x-x--|--x-x-x---x-x-x---x-x-x-------(x)-----|
|--5---5-5-5---5-5-4---4-4-4--|--4-4-9---9-9-7---7-7-5-------(5)-----|
|-----------------------------|--------------------------------------|







 Gtr. 1:
|
|-----------------------------|--------------------------------------|
|-----------------------------|--------------------------------------|
|--7---7-7-7---7-7-7---7-7-7--|--7-7-4---4-4-4---4-4-3---3-3-3---3-3-|
|--7---7-7-7---7-7-7---7-7-7--|--7-7-4---4-4-4---4-4-3---3-3-3---3-3-|
|--5---5-5-5---5-5-4---4-4-4--|--4-4-2---2-2-2---2-2-1---1-1-1---1-1-|
|-----------------------------|--------------------------------------|
|
|Gtr. 2:
|
|-----------------------------|--------------------------------------|
|-----------------------------|--------------------------------------|
|--7---7-7-7---7-7-7---7-7-7--|--7-7-11--111111--111112--121212--1212|
|--x---x-x-x---x-x-x---x-x-x--|--x-x-x---x-x-x---x-x-x---x-x-x---x-x-|
|--5---5-5-5---5-5-4---4-4-4--|--4-4-9---9-9-9---9-9-10--101010--1010|
|-----------------------------|--------------------------------------|



 Gtr. 1:
|
|-----------------------------|--------------------------------------|
|-----------------------------|--------------------------------------|
|--7---7-7-7---7-7-7---7-7-7--|--7-7-4---4-4-4---4-4-3---3-3-3---3-3-|
|--7---7-7-7---7-7-7---7-7-7--|--7-7-4---4-4-4---4-4-3---3-3-3---3-3-|
|--5---5-5-5---5-5-4---4-4-4--|--4-4-2---2-2-2---2-2-1---1-1-1---1-1-|
|-----------------------------|--------------------------------------|
|
|Gtr. 2:
|
|-----------------------------|--------------------------------------|
|-----------------------------|--------------------------------------|
|--7---7-7-7---7-7-7---7-7-7--|--7-7-11--11119---9-9-7---7-7-7---7-7-|
|--x---x-x-x---x-x-x---x-x-x--|--x-x-x---x-x-x---x-x-x---x-x-x---x-x-|
|--5---5-5-5---5-5-4---4-4-4--|--4-4-9---9-9-7---7-7-5---5-5-5---5-5-|
|-----------------------------|--------------------------------------|



 Gtr. 1:
|
|-----------------------------|--------------------------------------|
|-----------------------------|--------------------------------------|
|--7---7-7-7---7-7-7---7-7-7--|--7-7-4---4-4-4---4-4-3---3-3-3---3-3-|
|--7---7-7-7---7-7-7---7-7-7--|--7-7-4---4-4-4---4-4-3---3-3-3---3-3-|
|--5---5-5-5---5-5-4---4-4-4--|--4-4-2---2-2-2---2-2-1---1-1-1---1-1-|
|-----------------------------|--------------------------------------|
|
|Gtr. 2:
|
|-----------------------------|--------------------------------------|
|-----------------------------|--------------------------------------|
|--7---7-7-7---7-7-7---7-7-7--|--7-7-11--111111--111112--121212--1212|
|--x---x-x-x---x-x-x---x-x-x--|--x-x-x---x-x-x---x-x-x---x-x-x---x-x-|
|--5---5-5-5---5-5-4---4-4-4--|--4-4-9---9-9-9---9-9-10--101010--1010|
|-----------------------------|--------------------------------------|



 Gtr. 1:
|
|-----------------------------|--------------------------------------|
|-----------------------------|--------------------------------------|
|--7---7-7-7---7-7-7---7-7-7--|--7-7-4---4-4-4---4-4-3---3-3-3---3-3-|
|--7---7-7-7---7-7-7---7-7-7--|--7-7-4---4-4-4---4-4-3---3-3-3---3-3-|
|--5---5-5-5---5-5-4---4-4-4--|--4-4-2---2-2-2---2-2-1---1-1-1---1-1-|
|-----------------------------|--------------------------------------|
|
|Gtr. 2:
|
|-----------------------------|--------------------------------------|
|-----------------------------|--------------------------------------|
|--7---7-7-7---7-7-7---7-7-7--|--7-7-11--11119---9-9-7-------(7)-----|
|--x---x-x-x---x-x-x---x-x-x--|--x-x-x---x-x-x---x-x-x-------(x)-----|
|--5---5-5-5---5-5-4---4-4-4--|--4-4-9---9-9-7---7-7-5-------(5)-----|
|-----------------------------|--------------------------------------|




Fill:

|----------------|     |----------------------|
|----------------|     |----------------------|
|-7----7----7----|     |----------------------|
|-x----x----x----|     |----------------------|
|-5----5----5----|     |---5------6-5---5-----|
|----------------|     |--------------8---8---|



 (1:34)
|-------------------------------|
|-------------------------------| x6
|-------------------------------|
|-------------------------------|
|--7--7-7-7-7---8--8-8----------|
|--5--5-5-5-5---5--5-5--6-5---5-|
|---------------------------8---|



 (1:55)
|-----------------|--------------|--------------|
|-----------------|--------------|--------------| X4
|-----------------|--------------|--------------|
|-------------5-4-|--------------|--------------|
|-6-6-6-6-5-5-----|--------------|--------------|
|-----------------|--0--0--0--0--|--0--0--0--0--|

|-----------------|--------------|--------------|
|-----------------|--------------|--------------| X4
|-----------------|--------------|--------------|
|-------------4-3-|--------------|--------------|
|-6-6-6-6-5-5-----|--------------|--------------|
|-----------------|-----0--0-----|-----0--0-----|




|-------------|--------------|
|-------------|--------------|
|-------------|--------------|
|-------------|--------------|
|-------------|--------------|
|-0--0--0--0--|--0--0--0--0--|


 (2:22)
 Gtr. 1
|------------------|------------------|
|------------------|-------------7-8--| X6
|-------8-7-6------|-------8-7-6------|
|-6-5-6------------|-6-5-6------------|
|------------------|------------------|
|------------------|------------------|
|
|Gtr. 2
|------------------|------------------|
|------------------|------------------|
|------------------|------------------|
|--------------000-|------------------|
|--------------000-|------------------|
|--------------000-|------------------|



|------------------|
|---------------8--|
|---------6-7-8----|
|-6-5-6-7----------|
|------------------|
|------------------|



 (2:39)
play w/ upstrokes
|-5-5-5---4-4-4--|---7-7-7---6-6-6--|
|-7-7-7---6-6-6--|---9-9-9---8-8-8--| X4
|-6-6-6---5-5-5--|---8-8-8---7-7-7--|
|----------------|------------------|
|----------------|------------------|
|----------------|------------------|


|----------------|----------------|----------------------------|
|----------------|----------------|----------------------------| X4
|----------------|----------------|----------------------------|
|-0-2-3-4-3-2-0--|-0-2-3-4-3-2-0--|-4---3-2-1-3-4---3-4-3-1-0--|
|----------------|----------------|----------------------------|
|----------------|----------------|----------------------------|


|------------|
|------------|
|------------|
|-3-4-3-1-0--|
|------------|
|------------|



 Outro

|-------------|
|------1--0---| (repeat to fade)
|---0---------|
|-6-----------|
|-------------|
|-------------|
Добавлено: 22.03.2012
Другие материалы по этой песне:

Страница создана 22.03.2012
http://primanota.ru/folly/discussion-is-for-the-pigs-chords.htm
Привет, Гость.
Предлагаем пройти революционный курс по гитаре.
Подарок от PrimaNota.Ru, забирай!