PrimaNota.ru - самый крупный в мире бесплатный архив песенных текстов, аккордов, табулатур и нот


Folly - Broken - таба, видео

Регистрация Запомнить меня
Войти через:  Facebook Google Twitter Vk Yandex Mail.ru

Folly - Broken - таба, видео

Печатать
Просмотров: 158
As recorded by Folly
                           (From the 2002 Album DEMO)

Words and Music by Folly
Arranged by Folly
Transcribed by jonathanonfire

Gtr I (D A D G B E) - 'Untitled'
Gtr II (D A D G B E) - 'Untitled'
Gtr III (D A D G B E) - 'Untitled'
Gtr IV (D A D G B E) - 'Untitled'
Gtr V (D A D G B E) - 'Untitled'
Gtr VI (D A D G B E) - 'Untitled'

 Intro
  Skacore Q=134
  N.C.   D5
 1/4    4/4
  Gtr I
                     ~~~~~~~~~~~~~~~~~~~        ~~
  Q         E    E   H.          Q    Q   E  E  Q
|----||----------------------|---------------------|
|----||o---------------------|-/13---11--10-11-10--|
|----||---------10---9-------|---------------------|
|----||---/12----------------|---------------------|
|----||o---------------------|---------------------|
|----||----------------------|---------------------|
|
| Gtr II
|           PM-----|
| Q         S S  S S H.         +W
|----||----------------------|---------------------|
|----||o---------------------|---------------------|
|----||----------------------|---------------------|
|----||----------------------|---------------------|
|----||o----0-0--0-0-0-------|--(0)----------------|
|----||-----0-0--0-0-0-------|--(0)----------------|


             ~~~~~~~~~~~~~~~~~~~        ~~
    E    E   H.          Q    Q   E  E  Q
|--------------------|----------------------|
|--------------------|-/13---11--10-11-10---|
|-------10---9-------|----------------------|
|-/12----------------|----------------------|
|--------------------|----------------------|
|--------------------|----------------------|
|
|   PM-----|
|   S S  S S H.         +W
|--------------------|----------------------|
|--------------------|----------------------|
|--------------------|----------------------|
|--------------------|----------------------|
|---0-0--0-0-0-------|--(0)-----------------|
|---0-0--0-0-0-------|--(0)-----------------|


  D5
             ~~~~~~~~~~~~~~~~~~~        ~~
    E    E   H.          Q    Q   E  E  Q
|--------------------|---------------------|
|--------------------|-/13---11--10-11-10--|
|-------10---9-------|---------------------|
|-/12----------------|---------------------|
|--------------------|---------------------|
|--------------------|---------------------|
|
|   PM-----|
|   S S  S S H.         +W
|--------------------|---------------------|
|--------------------|---------------------|
|--------------------|---------------------|
|--------------------|---------------------|
|---0-0--0-0-0-------|--(0)----------------|
|---0-0--0-0-0-------|--(0)----------------|


             ~~~~~~~~~~~~~~~~~~~~~~~~~~~
    E    E   H.          Q    Q   Q   Q
|--------------------|--------------------||
|--------------------|-------10--11--10--o||
|-------10---9-------|-/12----------------||
|-/12----------------|--------------------||
|--------------------|-------------------o||
|--------------------|--------------------||
|
|   PM-----|
|   S S  S S H.         +W
|--------------------|--------------------||
|--------------------|-------------------o||
|--------------------|--------------------||
|--------------------|--------------------||
|---0-0--0-0-0-------|--(0)--------------o||
|---0-0--0-0-0-------|--(0)---------------||


  D5
 2/4
                                             >
   E  E  E  E    E  E  E  E    E  E  E  E    E  E  E  E
|-------------|-------------|-------------|-------------||
|-------------|-------------|-------------|-------------||
|-14-14-14-14-|-14-14-14-14-|-14-14-14-14-|-14-14-14-14-||
|-12-12-12-12-|-12-12-12-12-|-12-12-12-12-|-12-12-12-12-||
|-12-12-12-12-|-12-12-12-12-|-12-12-12-12-|-12-12-12-12-||
|-------------|-------------|-------------|-------------||
|
|  PM----------------------------|
|  E  E  Q       E  E  Q       E  E  Q       H
|-------------|-------------|-------------|-------------||
|-------------|-------------|-------------|-------------||
|-------------|-------------|-------------|-------------||
|-------------|-------------|-------------|-------------||
|--0--0-------|--0--0-------|--0--0-------|-------------||
|--0--0-------|--0--0-------|--0--0-------|-------------||


   "Breathe me in like air.."
    D5  F/A                             D5  G/B
   4/4
    Gtrs I, II
    PM|     PM|       PM|     PM|       PM|     PM|       PM|     PM|
    E E  Q  E E  Q    E E  Q  E E  Q    E E  Q  E E  Q    E E  Q  E E  Q
||------------------|-----------------|-----------------|------------------|
||o-----------------|-----------------|-----------------|------------------|
||------14------14--|-----14------14--|-----16------16--|-----16------16---|
||------15------15--|-----15------15--|-----17------17--|-----17------17---|
||o-0-0-12--0-0-12--|-0-0-12--0-0-12--|-0-0-14--0-0-14--|-0-0-14--0-0-14---|
||--0-0-----0-0-----|-0-0-----0-0-----|-0-0-----0-0-----|-0-0-----0-0------|


                                      1.
  D5  G#/C                            D5B/Eb  D5Fbb5      D5B/Eb  D5Fbb5
  PM|     PM|       PM|     PM|       PM  PM  PM   PM     PM  PM  PM   PM
  E E  Q  E E  Q    E E  Q  E E  Q    E E E E E  E E  E   E E E E E  E E  E
|-----------------|-----------------|-------------------|--------------------||
|-----------------|-----------------|-------------------|-------------------o||
|-----17------17--|-----17------17--|---8---8---10---10-|---8---8---10---10--||
|-----18------18--|-----18------18--|---9---9----9----9-|---9---9----9----9--||
|-0-0-15--0-0-15--|-0-0-15--0-0-15--|-0-6-0-6-0--8-0--8-|-0-6-0-6-0--8-0--8-o||
|-0-0-----0-0-----|-0-0-----0-0-----|-0---0---0----0----|-0---0---0----0-----||


  2.203
  N.C.
  W          H.      S S S S   E H    E S S S S   e H..
|----------|-----------------|------------------|----------||
|----------|-----------------|------------------|----------||
|----------|-----------------|------------------|----------||
|----------|-----------------|------------------|----------||
|----------|---------x-x-x-x-|-x--------x-x-x-x-|-x--------||
|----------|---------x-x-x-x-|-x--------x-x-x-x-|-x--------||


 "Limitless expressions.."
  Dm
  Gtr IV
  E E E E E E E E   E E E E E E E E   E E E E E E E E   E E E E E E E E
|-x-5-x-5-x-5-x-5-|-x-5-x-5-x-5-x-5-|-x-5-x-5-x-5-x-5-|-x-5-x-5-x-5-x-5-|
|-x-6-x-6-x-6-x-6-|-x-6-x-6-x-6-x-6-|-x-6-x-6-x-6-x-6-|-x-6-x-6-x-6-x-6-|
|-x-7-x-7-x-7-x-7-|-x-7-x-7-x-7-x-7-|-x-7-x-7-x-7-x-7-|-x-7-x-7-x-7-x-7-|
|-----------------|-----------------|-----------------|-----------------|
|-----------------|-----------------|-----------------|-----------------|
|-----------------|-----------------|-----------------|-----------------|


  Dm                                  G5 A5 BbA5 G5
                                      Gtrs I, II
  E E E E E E E E   E E E E E E E E   E. E. E Q  Q
|-x-5-x-5-x-5-x-5-|-x-5-x-5-x-5-x-5-|---------------|
|-x-6-x-6-x-6-x-6-|-x-6-x-6-x-6-x-6-|---------------|
|-x-7-x-7-x-7-x-7-|-x-7-x-7-x-7-x-7-|---------------|
|-----------------|-----------------|-5--7--8-7--5--|
|-----------------|-----------------|-5--7--8-7--5--|
|-----------------|-----------------|-5--7--8-7--5--|


    Dm
    Gtr IV
    E   E     E   E     E E E E   E   E     E   E     E E E E
||--x---5-----x---5-----x-5-x-5-|-x---5-----x---5-----x-5-x-5-|
||o-x---6-----x---6-----x-6-x-6-|-x---6-----x---6-----x-6-x-6-|
||--x---7-----x---7-----x-7-x-7-|-x---7-----x---7-----x-7-x-7-|
||------------------------------|-----------------------------|
||o-----------------------------|-----------------------------|
||------------------------------|-----------------------------|
|
|   Gtr II
|   PM----------------|           PM----------------|
|       |-3-|     |-3-|               |-3-|     |-3-|
|   S S S S S S S S S S E E E E   S S S S S S S S S S E E E E
||------------------------------|-----------------------------|
||o-----------------------------|-----------------------------|
||------------------------------|-----------------------------|
||------------------------------|---------------------5-5-7-7-|
||o-x-x-5-5-5-x-x-5-5-5-7-7-8-8-|-x-x-5-5-5-x-x-5-5-5---------|
||------------------------------|-----------------------------|


  E   E     E   E     E E E E   E E E E E E E E
|-x---5-----x---5-----x-5-x-5-|-x-5-x-5-x-5-x-5-|
|-x---6-----x---6-----x-6-x-6-|-x-6-x-6-x-6-x-6-|
|-x---7-----x---7-----x-7-x-7-|-x-7-x-7-x-7-x-7-|
|-----------------------------|-----------------|
|-----------------------------|-----------------|
|-----------------------------|-----------------|
|
| PM----------------|
|     |-3-|     |-3-|
| S S S S S S S S S S E E E E   E E E E E E E E
|-----------------------------|-----------------|
|-----------------------------|-----------------|
|-----------------------------|-----------------|
|-----------------------------|-7-5-7-8-7-5-7-8-|
|-x-x-5-5-5-x-x-5-5-5-7-7-8-8-|-----------------|
|-----------------------------|-----------------|


  Dm
  E   E     E   E     E E E E
|-x---5-----x---5-----x-5-x-5-|
|-x---6-----x---6-----x-6-x-6-|
|-x---7-----x---7-----x-7-x-7-|
|-----------------------------|
|-----------------------------|
|-----------------------------|
|
| PM----------------|
|     |-3-|     |-3-|
| S S S S S S S S S S E E E E
|-----------------------------|
|-----------------------------|
|-----------------------------|
|-----------------------------|
|-x-x-5-5-5-x-x-5-5-5-7-7-8-8-|
|-----------------------------|


                                1.
                                G5 A5 BbA5 G5
                                Gtr I
  E   E     E   E     E E E E   E. E. E Q  Q
|-x---5-----x---5-----x-5-x-5-|------------------||
|-x---6-----x---6-----x-6-x-6-|-----------------o||
|-x---7-----x---7-----x-7-x-7-|------------------||
|-----------------------------|-5--7--8-7--5-----||
|-----------------------------|-5--7--8-7--5----o||
|-----------------------------|-5--7--8-7--5-----||
|
| PM----------------|
|     |-3-|     |-3-|
| S S S S S S S S S S E E E E   E. E. E Q  Q
|-----------------------------|------------------||
|-----------------------------|-----------------o||
|-----------------------------|------------------||
|---------------------5-5-7-7-|-5--7--8-7--5-----||
|-x-x-5-5-5-x-x-5-5-5---------|-5--7--8-7--5----o||
|-----------------------------|-5--7--8-7--5-----||


 "And each time that we.."
  2.172
  G5 A5 BbA5 G5   F5         G5 A5 BbA5 G5   E5         G5 A5 BbA5 Eb5
  Gtrs I, II
  E. E. E Q  Q    W          E. E. E Q  Q    W          E. E. E Q  Q
|---------------|----------|---------------|----------|---------------|
|---------------|----------|---------------|----------|---------------|
|---------------|----------|---------------|----------|------------8--|
|-5--7--8-7--5--|-3--------|-5--7--8-7--5--|-2--------|-5--7--8-7--8--|
|-5--7--8-7--5--|-3--------|-5--7--8-7--5--|-2--------|-5--7--8-7--6--|
|-5--7--8-7--5--|-3--------|-5--7--8-7--5--|-2--------|-5--7--8-7-----|


  D5          Dbb5     D5          N.C.
  PM--------|    PM-------------------------
  S S E S S E Q  E E   S S E S S E E E E E
|--------------------|---------------------|
|--------------------|---------------------|
|-------------7------|---------------------|
|-------------6------|---------------------|
|-0-0-0-0-0-0-5--0-0-|-0-0-0-0-0-0-----0h1-|
|-0-0-0-0-0-0----0-0-|-0-0-0-0-0-0-3h5-----|


  D5          Dbb5     D5          N.C.
 -----------|    PM--------------|     ~
  S S E S S E Q  E E   S S E S S E E E Q
|--------------------|---------------------|
|--------------------|---------------------|
|-------------7------|---------------------|
|-------------6------|-------------3-2-----|
|-0-0-0-0-0-0-5--0-0-|-0-0-0-0-0-0-----5---|
|-0-0-0-0-0-0----0-0-|-0-0-0-0-0-0---------|


  D5                   D5          N.C.
  PM----------------------------------------
  S S E S S E q  E E   S S E S S E E E E E
|--------------------|---------------------|
|--------------------|---------------------|
|--------------------|---------------------|
|--------------------|---------------------|
|-0-0-0-0-0-0-0--0-0-|-0-0-0-0-0-0-----0h1-|
|-0-0-0-0-0-0-0--0-0-|-0-0-0-0-0-0-3h5-----|


  D5                   D5                 N.C.
 --------------------------------|
  S S E S S E q  E E   S S E S S E H      E E E E E E Q
|--------------------|------------------|------------------||
|--------------------|------------------|------------------||
|--------------------|------------------|------------------||
|--------------------|------------------|-8-7-5------------||
|-0-0-0-0-0-0-0--0-0-|-0-0-0-0-0-0------|-------8-7-5------||
|-0-0-0-0-0-0-0--0-0-|-0-0-0-0-0-0------|------------------||


   "A short-lived grace!"
    Q=162
    N.C.
   2/4
    S. T S. T S. T S. T    S. T  T. X  T. X S. T S. T
||----------------------|-----------------------------|
||o---------------------|-----------------------------|
||--7----7----9----9----|-10----10----10----9----9----|
||--x----x----x----x----|--x-----x-----x----x----x----|
||o-5--x-5--x-7--x-7--x-|--8--x--8--x--8--x-7--x-7--x-|
||----------------------|-----------------------------|


   S. T  S. T S. T S. T    S. T  T. X  T. X S. T S. T
|-----------------------|------------------------------||
|-----------------------|-----------------------------o||
|-12----12----9----9----|-10----10----10----9----9-----||
|--x-----x----x----x----|--x-----x-----x----x----x-----||
|-10--x-10--x-7--x-7--x-|--8--x--8--x--8--x-7--x-7--x-o||
|-----------------------|------------------------------||


    N.C.
     S. T  S. T  S. T  S. T    S. T  T. X  T. X S. T S. T
||--------------------------|-----------------------------|
||o-------------------------|-----------------------------|
||--14----14----12----12----|-10----10----10----9----9----|
||---x-----x-----x-----x----|--x-----x-----x----x----x----|
||o-12--x-12--x-10--x-10--x-|--8--x--8--x--8--x-7--x-7--x-|
||--------------------------|-----------------------------|


   S. T  S. T S. T S. T    S. T  T. X  T. X S. T S. T
|-----------------------|-------------------------------||
|-----------------------|------------------------------o||
|-12----12----9----9----|-10----10----10----9----9------||
|--x-----x----x----x----|--x-----x-----x----x----x------||
|-10--x-10--x-7--x-7--x-|--8--x--8--x--8--x-7--x-7--x--o||
|-----------------------|-------------------------------||


 "Addressed to your.."
  D5         N.C.            D5E5F5FbD5E5F5Fbb5D5E5F5FbD5E5F5Fbb5
 4/4
  Gtr I      Gtr VI          Gtr I
              TP
  W           W              E E E E E E E E   E E E E E E E E
|----------|---------------|-----------------|------------------|
|----------|---------------|-----------------|------------------|
|----------|---------------|-----------------|------------------|
|-0--------|--x\-----------|-------3-------3-|-------3-------3--|
|-0--------|--x\-----------|-0-2-3-2-0-2-3-2-|-0-2-3-2-0-2-3-2--|
|-0--------|--x\-----------|-0-2-3-3-0-2-3-3-|-0-2-3-3-0-2-3-3--|
|
| Gtr II
| W          +W          a   E E E E E E E E   E E E E E E E E
|----------|---------------|-----------------|------------------|
|----------|---------------|-----------------|------------------|
|----------|---------------|-----------------|------------------|
|-0--------|-(0)S=======12-|-------3-------3-|-------3-------3--|
|-0--------|-(0)S=======12-|-0-2-3-2-0-2-3-2-|-0-2-3-2-0-2-3-2--|
|-0--------|-(0)S=======12-|-0-2-3-3-0-2-3-3-|-0-2-3-3-0-2-3-3--|


  D5E5F5FbD5E5F5Fbb5D5E5F5FbD5E5F5Fbb5D5E5F5FbD5E5F5Fbb5D5E5F5FbD5E5F5Fbb5
  Gtrs I, II
  E E E E E E E E   E E E E E E E E   E E E E E E E E   E E E E E E E E
|-----------------|-----------------|-----------------|-----------------|
|-----------------|-----------------|-----------------|-----------------|
|-----------------|-----------------|-----------------|-----------------|
|-------3-------3-|-------3-------3-|-------3-------3-|-------3-------3-|
|-0-2-3-2-0-2-3-2-|-0-2-3-2-0-2-3-2-|-0-2-3-2-0-2-3-2-|-0-2-3-2-0-2-3-2-|
|-0-2-3-3-0-2-3-3-|-0-2-3-3-0-2-3-3-|-0-2-3-3-0-2-3-3-|-0-2-3-3-0-2-3-3-|


  D5E5F5FbD5E5F5Fbb5D5E5F5FbD5E5F5Fbb5N.C.              D5
  Gtr I
                                                             PM|
  E E E E E E E E   E E E E E E E E   E E E E E E E E   Q.   S S E Q.
|-----------------|-----------------|-----------------|-----------------||
|-----------------|-----------------|-----------------|-----------------||
|-----------------|-----------------|-----------------|-----------------||
|-------3-------3-|-------3-------3-|-----------------|-0---------------||
|-0-2-3-2-0-2-3-2-|-0-2-3-2-0-2-3-2-|-5-6-7-8-5-6-7-8-|-0----0-0-0------||
|-0-2-3-3-0-2-3-3-|-0-2-3-3-0-2-3-3-|-----------------|-0----0-0-0------||
|
| Gtr II
|                                                            PM|
| E E E E E E E E   E E E E E E E E   E E E E E E E E   Q.   S S E Q.
|-----------------|-----------------|-----------------|-----------------||
|-----------------|-----------------|-----------------|-----------------||
|-----------------|-----------------|-----------------|-----------------||
|-------3-------3-|-------3-------3-|-8-7-6-5-8-7-6-5-|-0---------------||
|-0-2-3-2-0-2-3-2-|-0-2-3-2-0-2-3-2-|-----------------|-0----0-0-0------||
|-0-2-3-3-0-2-3-3-|-0-2-3-3-0-2-3-3-|-----------------|-0----0-0-0------||


   "And in a matter of time.."
    Q=203
    Dm
    Gtr IV
    E   E     E   E     E E E E   E   E     E   E     E E E E
||--x---5-----x---5-----x-5-x-5-|-x---5-----x---5-----x-5-x-5-|
||o-x---6-----x---6-----x-6-x-6-|-x---6-----x---6-----x-6-x-6-|
||--x---7-----x---7-----x-7-x-7-|-x---7-----x---7-----x-7-x-7-|
||------------------------------|-----------------------------|
||o-----------------------------|-----------------------------|
||------------------------------|-----------------------------|
|
|   Gtr II
|   PM----------------|           PM----------------|
|       |-3-|     |-3-|               |-3-|     |-3-|
|   S S S S S S S S S S E E E E   S S S S S S S S S S E E E E
||------------------------------|-----------------------------|
||o-----------------------------|-----------------------------|
||------------------------------|-----------------------------|
||------------------------------|---------------------5-5-7-7-|
||o-x-x-5-5-5-x-x-5-5-5-7-7-8-8-|-x-x-5-5-5-x-x-5-5-5---------|
||------------------------------|-----------------------------|


  E   E     E   E     E E E E   E E E E E E E E
|-x---5-----x---5-----x-5-x-5-|-x-5-x-5-x-5-x-5-|
|-x---6-----x---6-----x-6-x-6-|-x-6-x-6-x-6-x-6-|
|-x---7-----x---7-----x-7-x-7-|-x-7-x-7-x-7-x-7-|
|-----------------------------|-----------------|
|-----------------------------|-----------------|
|-----------------------------|-----------------|
|
| PM----------------|
|     |-3-|     |-3-|
| S S S S S S S S S S E E E E   E E E E E E E E
|-----------------------------|-----------------|
|-----------------------------|-----------------|
|-----------------------------|-----------------|
|-----------------------------|-7-5-7-8-7-5-7-8-|
|-x-x-5-5-5-x-x-5-5-5-7-7-8-8-|-----------------|
|-----------------------------|-----------------|


  Dm
  E   E     E   E     E E E E
|-x---5-----x---5-----x-5-x-5-|
|-x---6-----x---6-----x-6-x-6-|
|-x---7-----x---7-----x-7-x-7-|
|-----------------------------|
|-----------------------------|
|-----------------------------|
|
| PM----------------|
|     |-3-|     |-3-|
| S S S S S S S S S S E E E E
|-----------------------------|
|-----------------------------|
|-----------------------------|
|-----------------------------|
|-x-x-5-5-5-x-x-5-5-5-7-7-8-8-|
|-----------------------------|


                                G5 A5 BbA5 G5
                                Gtr I
  E   E     E   E     E E E E   E. E. E Q  Q
|-x---5-----x---5-----x-5-x-5-|------------------||
|-x---6-----x---6-----x-6-x-6-|-----------------o||
|-x---7-----x---7-----x-7-x-7-|------------------||
|-----------------------------|-5--7--8-7--5-----||
|-----------------------------|-5--7--8-7--5----o||
|-----------------------------|-5--7--8-7--5-----||
|
| PM----------------|
|     |-3-|     |-3-|
| S S S S S S S S S S E E E E   E. E. E Q  Q
|-----------------------------|------------------||
|-----------------------------|-----------------o||
|-----------------------------|------------------||
|---------------------5-5-7-7-|-5--7--8-7--5-----||
|-x-x-5-5-5-x-x-5-5-5---------|-5--7--8-7--5----o||
|-----------------------------|-5--7--8-7--5-----||


   "Each lasting memory.."
    Q=170
    (D5)                   (Bb/Db)                (Dsus4)
    Gtr III
    E  E  E E  E  E E  E   E  E  E E  E  E E  E   E E E E E E E E
||-----------------------|----------------------|-----------------|
||o---10-10---10-10---10-|---11-11---11-11---11-|---8-8---8-8---8-|
||--7-------7-------7----|-7-------7-------7----|-7-----7-----7---|
||-----------------------|----------------------|-----------------|
||o----------------------|----------------------|-----------------|
||-----------------------|----------------------|-----------------|


  1.                       2.
  (D5)                     (D5)
  E  E  E E  E  E E  E     E  E  E E  E  E  E  +E
|-----------------------||----------------------------|
|---10-10---10-10---10-o||---10-10---10-10-10-(10)\---|
|-7-------7-------7-----||-7-------7------------------|
|-----------------------||----------------------------|
|----------------------o||----------------------------|
|-----------------------||----------------------------|


  (C5)                                (Csus4)           (C)
  E E E E E E E E   E E E E E E E E   E E E E E E E E   E E E E q  Q
|-----------------|-----------------|-----------------|---------------|
|---8-8---8-8---8-|---8-8---8-8---8-|---6-6---6-6---6-|---5-5---5-----|
|-5-----5-----5---|-5-----5-----5---|-5-----5-----5---|-5-----5-------|
|-----------------|-----------------|-----------------|---------------|
|-----------------|-----------------|-----------------|---------------|
|-----------------|-----------------|-----------------|---------------|


    (Dmadd9)
    Gtr III
    E  E  E  E  E  E E  E   E  E  E  E  E  E E  E   E E E  E E E E E
||------------------------|-----------------------|------------------|
||o---10-10----10-10---10-|---11-11----11-11---11-|---8-8----8-8---8-|
||--7--------7-------7----|-7--------7-------7----|-7------7-----7---|
||------------------------|-----------------------|------------------|
||o-----------------------|-----------------------|------------------|
||------------------------|-----------------------|------------------|
|
|   Gtr V
|   E  E  H.                E  E  H.                E E H.
||--------0---------------|-------0---------------|-----0------------|
||o----6------------------|----6------------------|---6--------------|
||--7---------------------|-7---------------------|-7----------------|
||------------------------|-----------------------|------------------|
||o-----------------------|-----------------------|------------------|
||------------------------|-----------------------|------------------|


  1.                        2.
  E  E  E  E  E  E E  E     E  E  E  E  E  E  E  +E
|------------------------||-----------------------------|
|---10-10----10-10---10-o||---10-10----10-10-10-(10)\---|
|-7--------7-------7-----||-7--------7------------------|
|------------------------||-----------------------------|
|-----------------------o||-----------------------------|
|------------------------||-----------------------------|
|
| E  E  H.                  E  E  H.
|-------0----------------||-------0---------------------|
|----6------------------o||----6------------------------|
|-7----------------------||-7---------------------------|
|------------------------||-----------------------------|
|-----------------------o||-----------------------------|
|------------------------||-----------------------------|


  (Cadd9)
  E E E  E E E E E   E E E  E E E E E   E E E  E E E E E   E E E  E E E E E
|------------------|------------------|------------------|------------------|
|---8-8----8-8---8-|---8-8----8-8---8-|---6-6----6-6---6-|---5-5----5-5---5-|
|-5------5-----5---|-5------5-----5---|-5------5-----5---|-5------5-----5---|
|------------------|------------------|------------------|------------------|
|------------------|------------------|------------------|------------------|
|------------------|------------------|------------------|------------------|
|
| E E H.             E E H.             E E H.             E E H.
|-----0------------|-----0------------|-----0------------|-----0------------|
|---3--------------|---3--------------|---3--------------|---3--------------|
|-5----------------|-5----------------|-5----------------|-5----------------|
|------------------|------------------|------------------|------------------|
|------------------|------------------|------------------|------------------|
|------------------|------------------|------------------|------------------|


    (Dmadd9)
    E  E  E  E  E  E E  E   E  E  E  E  E  E E  E   E E E  E E E E E
||------------------------|-----------------------|------------------|
||o---10-10----10-10---10-|---11-11----11-11---11-|---8-8----8-8---8-|
||--7--------7-------7----|-7--------7-------7----|-7------7-----7---|
||------------------------|-----------------------|------------------|
||o-----------------------|-----------------------|------------------|
||------------------------|-----------------------|------------------|
|
|   E  E  H.                E  E  H.                E E H.
||--------0---------------|-------0---------------|-----0------------|
||o----6------------------|----6------------------|---6--------------|
||--7---------------------|-7---------------------|-7----------------|
||------------------------|-----------------------|------------------|
||o-----------------------|-----------------------|------------------|
||------------------------|-----------------------|------------------|


  1.                        2.
  E  E  E  E  E  E E  E     E  E  E  E  E  E  E  +E
|------------------------||-----------------------------|
|---10-10----10-10---10-o||---10-10----10-10-10-(10)\---|
|-7--------7-------7-----||-7--------7------------------|
|------------------------||-----------------------------|
|-----------------------o||-----------------------------|
|------------------------||-----------------------------|
|
| E  E  H.                  E  E  H.
|-------0----------------||-------0---------------------|
|----6------------------o||----6------------------------|
|-7----------------------||-7---------------------------|
|------------------------||-----------------------------|
|-----------------------o||-----------------------------|
|------------------------||-----------------------------|


  (Cadd9)
  E E E  E E E E E   E E E  E E E E E   E E E  E E E E E   E E E  E E E E E
|------------------|------------------|------------------|------------------||
|---8-8----8-8---8-|---8-8----8-8---8-|---6-6----6-6---6-|---5-5----5-5---5-||
|-5------5-----5---|-5------5-----5---|-5------5-----5---|-5------5-----5---||
|------------------|------------------|------------------|------------------||
|------------------|------------------|------------------|------------------||
|------------------|------------------|------------------|------------------||
|
| E E H.             E E H.             E E H.             E E H.
|-----0------------|-----0------------|-----0------------|-----0------------||
|---3--------------|---3--------------|---3--------------|---3--------------||
|-5----------------|-5----------------|-5----------------|-5----------------||
|------------------|------------------|------------------|------------------||
|------------------|------------------|------------------|------------------||
|------------------|------------------|------------------|------------------||


   Breakdown
    Dbb5    D5 Dbb5      N.C.            Dbb5    D5 Dbb5      N.C.
    Gtr I
            PM                                   PM
    E E E E Q  E E   E E E E E E E +E    E E E E Q  E E   E E E E E E E +E
||-----------------|-------------------|----------------|--------------------|
||o----------------|-------------------|----------------|--------------------|
||--7-7-7-7----7-7-|-7-7---------------|-7-7-7-7----7-7-|-7-7----------------|
||--6-6-6-6----6-6-|-6-6-----5-7-8-(8)-|-6-6-6-6----6-6-|-6-6-----5-7-8-(8)--|
||o-5-5-5-5-0--5-5-|-5-5-7-8-----------|-5-5-5-5-0--5-5-|-5-5-7-8------------|
||----------0------|-------------------|---------0------|--------------------|
|
|   Gtr II
|           PM                                   PM
|   E E E E Q  E E   W                   E E E E Q  E E   W
||-----------------|-------------------|----------------|--------------------|
||o----------------|-------------------|----------------|--------------------|
||--7-7-7-7----7-7-|-------------------|-7-7-7-7----7-7-|--------------------|
||--6-6-6-6----6-6-|-------------------|-6-6-6-6----6-6-|--------------------|
||o-5-5-5-5-0--5-5-|-------------------|-5-5-5-5-0--5-5-|--------------------|
||----------0------|-------------------|---------0------|--------------------|


  1.
  D5 Dbb5    D5 Dbb5      N.C.         Dbb5
 5/4                 4/4
  PM         PM                                PM
  Q  E E E E Q  E E   E E E E E E Q    E E E E Q  E E   E E E E E E Q
|-------------------|----------------|----------------|------------------||
|-------------------|----------------|----------------|-----------------o||
|----7-7-7-7----7-7-|-7-7------------|-7-7-7-7----7-7-|-7----------------||
|----6-6-6-6----6-6-|-6-6-----5-7-8--|-6-6-6-6----6-6-|-6-8-7-5----------||
|-0--5-5-5-5-0--5-5-|-5-5-7-8--------|-5-5-5-5-0--5-5-|-5-------8-7-5---o||
|-0----------0------|----------------|---------0------|------------------||
|
| PM         PM                                PM
| Q  E E E E Q  E E   W                E E E E Q  E E   W
|-------------------|----------------|----------------|------------------||
|-------------------|----------------|----------------|-----------------o||
|----7-7-7-7----7-7-|----------------|-7-7-7-7----7-7-|------------------||
|----6-6-6-6----6-6-|----------------|-6-6-6-6----6-6-|------------------||
|-0--5-5-5-5-0--5-5-|----------------|-5-5-5-5-0--5-5-|-----------------o||
|-0----------0------|----------------|---------0------|------------------||


  2.
  D5 Dbb5    D5 Dbb5      N.C.         Dbb5
 5/4                 4/4                               2/4
  PM         PM
  Q  E E E E Q  E E   E E E E E E Q    E E E E Q  E E   H
|-------------------|----------------|----------------|------|
|-------------------|----------------|----------------|------|
|----7-7-7-7----7-7-|-7-7------------|-7-7-7-7----7-7-|------|
|----6-6-6-6----6-6-|-6-6-----5-7-8--|-6-6-6-6----6-6-|------|
|-0--5-5-5-5-0--5-5-|-5-5-7-8--------|-5-5-5-5----5-5-|------|
|-0----------0------|----------------|----------------|------|
|
| PM         PM
| Q  E E E E Q  E E   W                E E E E Q  E E   H
|-------------------|----------------|----------------|------|
|-------------------|----------------|----------------|------|
|----7-7-7-7----7-7-|----------------|-7-7-7-7----7-7-|------|
|----6-6-6-6----6-6-|----------------|-6-6-6-6----6-6-|------|
|-0--5-5-5-5-0--5-5-|----------------|-5-5-5-5----5-5-|------|
|-0----------0------|----------------|----------------|------|


  (Dm)            (Em)
   H       H       H       H
|-------|-------|-------|-------||
|-------|-------|-------|-------||
|--7----|--7----|--9----|--9----||
|--x----|--x----|--x----|--x----||
|--5----|--5----|--7----|--7----||
|-------|-------|-------|-------||
|
|  H       H       H       H
|-------|-------|-------|-------||
|-------|-------|-------|-------||
|-10----|-10----|-12----|-12----||
|--x----|--x----|--x----|--x----||
|--8----|--8----|-10----|-10----||
|-------|-------|-------|-------||


   Outro
    Q=203
    D5
   4/4
     E  E  E  E  E  E  E  E    E  E  E  E  E  E  E  E
||--------------------------|-------------------------|
||o-------------------------|-------------------------|
||--14-14-14-14-14-14-14-14-|-15-15-15-15-15-15-15-15-|
||---x--x--x--x--x--x--x--x-|--x--x--x--x--x--x--x--x-|
||o-12-12-12-12-12-12-12-12-|-13-13-13-13-13-13-13-13-|
||--------------------------|-------------------------|
|
|    E  E  E  E  E  E  E  E    E  E  E  E  E  E  E  E
||--------------------------|-------------------------|
||o-------------------------|-------------------------|
||--------------------------|-------------------------|
||---0--0--0--0--0--0--0--0-|--0--0--0--0--0--0--0--0-|
||o--0--0--0--0--0--0--0--0-|--0--0--0--0--0--0--0--0-|
||---0--0--0--0--0--0--0--0-|--0--0--0--0--0--0--0--0-|


   E  E  E  E  E  E  E  E    E  E  E  E  E  E  E  E
|-------------------------|--------------------------|
|-------------------------|--------------------------|
|-12-12-12-12-12-12-12-12-|-14-14-14-14-14-14-14-14--|
|--x--x--x--x--x--x--x--x-|--x--x--x--x--x--x--x--x--|
|-10-10-10-10-10-10-10-10-|-12-12-12-12-12-12-12-12--|
|-------------------------|--------------------------|
|
|  E  E  E  E  E  E  E  E    E  E  E  E  E  E  E  E
|-------------------------|--------------------------|
|-------------------------|--------------------------|
|-------------------------|--------------------------|
|--0--0--0--0--0--0--0--0-|--0--0--0--0--0--0--0--0--|
|--0--0--0--0--0--0--0--0-|--0--0--0--0--0--0--0--0--|
|--0--0--0--0--0--0--0--0-|--0--0--0--0--0--0--0--0--|


  D5
   E  E  E  E  E  E  E  E    E  E  E  E  E  E  E  E
|-------------------------|-------------------------|
|-------------------------|-------------------------|
|-14-14-14-14-14-14-14-14-|-15-15-15-15-15-15-15-15-|
|--x--x--x--x--x--x--x--x-|--x--x--x--x--x--x--x--x-|
|-12-12-12-12-12-12-12-12-|-13-13-13-13-13-13-13-13-|
|-------------------------|-------------------------|
|
|  E  E  E  E  E  E  E  E    E  E  E  E  E  E  E  E
|-------------------------|-------------------------|
|-------------------------|-------------------------|
|-------------------------|-------------------------|
|--0--0--0--0--0--0--0--0-|--0--0--0--0--0--0--0--0-|
|--0--0--0--0--0--0--0--0-|--0--0--0--0--0--0--0--0-|
|--0--0--0--0--0--0--0--0-|--0--0--0--0--0--0--0--0-|


   E  E  E  E  E  E  E  E    E  E  E  E  E  E  E  E
|-------------------------|-------------------------|
|-------------------------|-------------------------|
|-12-12-12-12-12-12-12-12-|-14-14-14-14-14-14-14-14-|
|--x--x--x--x--x--x--x--x-|--x--x--x--x--x--x--x--x-|
|-10-10-10-10-10-10-10-10-|-12-12-12-12-12-12-12-12-|
|-------------------------|-------------------------|
|
|  E  E  E  E  E  E  E  E    E  E  E  E  E  E  E  E
|-------------------------|-------------------------|
|-------------------------|-------------------------|
|-------------------------|-------------------------|
|--0--0--0--0--0--0--0--0-|--0--0--0--0--0--0--0--0-|
|--0--0--0--0--0--0--0--0-|--0--0--0--0--0--0--0--0-|
|--0--0--0--0--0--0--0--0-|--0--0--0--0--0--0--0--0-|


  G5
   E  E  E  E  E  E  E  E    E  E  E  E  E  E  E  E
|-------------------------|-------------------------|
|-------------------------|-------------------------|
|-12-12-12-12-12-12-12-12-|-12-12-12-12-12-12-12-12-|
|--x--x--x--x--x--x--x--x-|--x--x--x--x--x--x--x--x-|
|-10-10-10-10-10-10-10-10-|-10-10-10-10-10-10-10-10-|
|-------------------------|-------------------------|
|
|  E  E  E  E  E  E  E  E    E  E  E  E  E  E  E  E
|-------------------------|-------------------------|
|-------------------------|-------------------------|
|-------------------------|-------------------------|
|--5--5--5--5--5--5--5--5-|--5--5--5--5--5--5--5--5-|
|--5--5--5--5--5--5--5--5-|--5--5--5--5--5--5--5--5-|
|--5--5--5--5--5--5--5--5-|--5--5--5--5--5--5--5--5-|


  F5                        E5
   E  E  E  E  E  E  E  E   E E E E E E E E
|-------------------------|------------------||
|-------------------------|-----------------o||
|-10-10-10-10-10-10-10-10-|-9-9-9-9-9-9-9-9--||
|--x--x--x--x--x--x--x--x-|-x-x-x-x-x-x-x-x--||
|--8--8--8--8--8--8--8--8-|-7-7-7-7-7-7-7-7-o||
|-------------------------|------------------||
|
|  E  E  E  E  E  E  E  E   E E E E E E E E
|-------------------------|------------------||
|-------------------------|-----------------o||
|-------------------------|------------------||
|--3--3--3--3--3--3--3--3-|-2-2-2-2-2-2-2-2--||
|--3--3--3--3--3--3--3--3-|-2-2-2-2-2-2-2-2-o||
|--3--3--3--3--3--3--3--3-|-2-2-2-2-2-2-2-2--||


  D5  N.C.          D5  N.C.          D5  N.C.          D5
  PM|               PM|               PM|               PM|
  E E E E E E E E   E E E E E E E E   E E E E E E E E   E E H.
|-----------------|-----------------|-----------------|-----------*|
|-----------------|-----------------|-----------------|-----------*|
|-------------5h7-|-------------5h7-|-------------5h7-|-----------*|
|-0-0-----7h8-----|-0-0-----7h8-----|-0-0-----7h8-----|-0-0-------*|
|-0-0-7h8---------|-0-0-7h8---------|-0-0-7h8---------|-0-0-------*|
|-0-0-------------|-0-0-------------|-0-0-------------|-0-0-------*|
|
| PM|               PM|               PM|               PM|
| E E H.            E E H.            E E H.            E E H.
|-----------------|-----------------|-----------------|-----------*|
|-----------------|-----------------|-----------------|-----------*|
|-----------------|-----------------|-----------------|-----------*|
|-0-0-------------|-0-0-------------|-0-0-------------|-0-0-------*|
|-0-0-------------|-0-0-------------|-0-0-------------|-0-0-------*|
|-0-0-------------|-0-0-------------|-0-0-------------|-0-0-------*|


Duration Legend
---------------
W - whole; H - half; Q - quarter; E - 8th; S - 16th; T - 32nd; X - 64th; a - acciaccatura
+ - note tied to previous; . - note dotted; .. - note double dotted
Uncapitalized letters represent notes that are staccato (1/2 duration)
Irregular groupings are notated above the duration line
Duration letters will always appear directly above the note/fret number it represents the
duration for.  Duration letters with no fret number below them represent rests.  Multi-
bar rests are notated in the form Wxn, where n is the number of bars to rest for.  Low
melody durations appear below the staff

Tablature Legend
----------------
 h   - hammer-on
 p   - pull-off
 b   - bend
 pb  - pre-bend
 r   - bend release (if no number after the r, then release immediately)
 /\  - slide into or out of (from/to "nowhere")
 s   - legato slide
 S   - shift slide
  - natural harmonic
[n]  - artificial harmonic
n(n) - tapped harmonic
 ~   - vibrato
 tr  - trill
 T   - tap
 TP  - trem. picking
 PM  - palm muting
\n/  - tremolo bar dip; n = amount to dip
 \n  - tremolo bar down
 n/  - tremolo bar up
/n\  - tremolo bar inverted dip
 =   - hold bend; also acts as connecting device for hammers/pulls
 <>  - volume swell (louder/softer)
 x   - on rhythm slash represents muted slash
 o   - on rhythm slash represents single note slash

Misc Legend
-----------
 |  - bar
||  - double bar
||o - repeat start
o|| - repeat end
*|  - double bar (ending)
 :  - bar (freetime)
 $  - Segno
 &  - Coda
Tempo markers -  = BPM(8/16=s8/s16), where s8 = swing 8ths, s16 = swing 16ths


Добавлено: 25.06.2012
Другие материалы по этой песне:

Страница создана 09.05.2012
http://primanota.ru/folly/broken-chords.htm
Привет, Гость.
Предлагаем пройти революционный курс по гитаре.
Подарок от PrimaNota.Ru, забирай!