PrimaNota.ru - самый крупный в мире бесплатный архив песенных текстов, аккордов, табулатур и нот


Follow You Home - Anywhere But Home - таба, видео

Регистрация Запомнить меня
Войти через:  Facebook Google Twitter Vk Yandex Mail.ru

Follow You Home - Anywhere But Home - таба, видео

Печатать
Просмотров: 109
Ultimate guitar judge people, i am sorry that this is the third time that i have
attempted to upload this within the past week, there was a translation issue from word 
to here
and i didn't double check it as it hasn't happened with any other of my tabs. So i'm 
sorry for being an idiot, and i will send you some cold ones when i'm old enough ;)

______________________________________________________________________________
-Song: Anywhere But Home
-Album: Anywhere But Home (Single)
-Artist: Follow You Home
-Difficulty: 5/10

This is the first acoustic song I have done, so the acoustic part might be a bit out,
but no excuses I guess. I'll probably end up tabbing out all of Follow You Home's songs.
Anyway, any suggestions, corrections or (preferably not) complaints, email me at:

b.woolfenden@hotmail.co.uk

Or just leave a comment :)

I am also doing requests, so if there's a song you like and no-one has tabbed it, then
just email me about it and I'll try it!
_______________________________________________________________________________

Tuning is Drop D (DADGBE) for the whole song

************************************

| /   slide up
| \   slide down
| h   hammer-on
| p   pull-off
| ~   vibrato
| +   harmonic
| x   Mute note
| b   Bend
| pb  Pre-bend
| br  Bend release
| pbr Pre-bend release
| brb Bend release bend

************************************


Part 1: The acoustic bit (0:00 – 2:20)

NOTE: I don't think there are 2 guitars in the acoustic part, if there is then I can't
hear the second one. But I know for the distortion bit there are two guitars.
¬¬¬¬¬¬¬¬¬¬¬¬¬¬¬¬¬¬¬¬¬¬¬¬¬¬¬¬¬¬¬¬¬¬¬¬¬¬¬¬¬¬¬¬¬¬¬¬¬¬¬¬¬¬¬¬¬¬¬¬¬¬¬¬¬¬¬¬¬¬¬¬¬¬¬¬¬¬¬¬

---Intro---

E|-----------------------------------------------------------------------|
B|-----5-------------------------------5---------------------------------|
G|-------7-----7-6-----6-7-----6-7-------7-----7-6-----6-7-----6-7-------| X2
D|-----------------------------------------------------------------------|
A|---0-----5-4-----5-4-----5-4-------5-----5-4-----5-4-----5-4-----------|
D|-0-------------------------------5-------------------------------------|

---Verse---

E|-----------------------------------------------------------------------|
B|-----5-------------------------------5---------------------------------|
G|-------7-----7-6-----6-7-----6-7-------7-----7-6-----6-7-----6-7-------| X4
D|-----------------------------------------------------------------------|
A|---0-----5-4-----5-4-----5-4-------5-----5-4-----5-4-----5-4-----------|
D|-0-------------------------------5-------------------------------------|

---Pre chorus--- (This part is difficult to play for me, if you spot an easier way then
email me, address is at the top)

E|-----0---2-----------0---2---------------------------------------------|
B|-------------------------------------5---7-----------5---7-------------|
G|---------------------------------------------------------x-------------|
D|---------------------------------------------------------7-------------|
A|---2---2---2-------2---2---2-------7---7---7-------7---7-5-------------|
D|-2-----------2-2-------------2-7-------------7-7---------0-------------|

---Chorus---

E|-----------------------------------------------------------------------|
B|-----5-------------------------------5---------------------------------|
G|-------7-----7-6-----6-7-----6-7-------7-----7-6-----6-7-----6-7-------|
D|-----------------------------------------------------------------------|
A|---0-----5-4-----5-4-----5-4-------5-----5-4-----5-4-----5-4-----------|
D|-0-------------------------------5-------------------------------------|

E|-------------------------------------------------------5---------------|
B|-----5-------------------------------5-7---5---------5-----5-----------|
G|-------7-----7-6-----6-7-----6-7---------------------------------------|
D|-----------------------------------------------------------------------|
A|---7-----5-4-----5-4-----5-4-------5---------------7-------------------|
D|-7-------------------------------5---------------7---------------------|

---Post chorus---

E|-----------------------------------------------------------------------|
B|-----5-------------------------------5---------------------------------|
G|-------7-----7-6-----6-7-----6-7-------7-----7-6-----6-7-----6-7-------|
D|-----------------------------------------------------------------------|
A|---0-----5-4-----5-4-----5-4-------0-----5-4-----5-4-----5-4-----------|
D|-0-------------------------------0-------------------------------------|

---Verse---

E|-----------------------------------------------------------------------|
B|-----5-------------------------------5---------------------------------|
G|-------7-----7-6-----6-7-----6-7-------7-----7-6-----6-7-----6-7-------| X2
D|-----------------------------------------------------------------------|
A|---0-----5-4-----5-4-----5-4-------5-----5-4-----5-4-----5-4-----------|
D|-0-------------------------------5-------------------------------------|

---Pre chorus---

E|-----0---2-----------0---2---------------------------------------------|
B|-------------------------------------5---7-----------5---7-------------|
G|---------------------------------------------------------x-------------|
D|---------------------------------------------------------7-------------|
A|---2---2---2-------2---2---2-------7---7---7-------7---7-5-------------|
D|-2-----------2-2-------------2-7-------------7-7---------0-------------|

---Chorus---

E|-----------------------------------------------------------------------|-|
B|-----5-------------------------------5---------------------------------| |
G|-------7-----7-6-----6-7-----6-7-------7-----7-6-----6-7-----6-7-------| |
D|-----------------------------------------------------------------------| |
A|---0-----5-4-----5-4-----5-4-------5-----5-4-----5-4-----5-4-----------| |
D|-0-------------------------------5-------------------------------------| |
                                                                         | X2
E|-------------------------------------------------------5-|---|---------| |
B|-----5-------------------------------5-7---5---------5---|-5-|---------| |
G|-------7-----7-6-----6-7-----6-7-------------------------|---|-x-x-x-x-| |
D|---------------------------------------------------------|---|-x-x-x-x-| |
A|---7-----5-4-----5-4-----5-4-------5---------------7-----|---|-x-x-x-x-| |
D|-7-------------------------------5---------------7-------|---|---------|-|
                                                     1st ending| 2nd ending|
NOTE: 2nd ending is when the distortion comes in.

¬¬¬¬¬¬¬¬¬¬¬¬¬¬¬¬¬¬¬¬¬¬¬¬¬¬¬¬¬¬¬¬¬¬¬¬¬¬¬¬¬¬¬¬¬¬¬¬¬¬¬¬¬¬¬¬¬¬¬¬¬¬¬¬¬¬¬¬¬¬¬¬¬¬¬

Part 2: The distorted bit (2:20 – 4:16)

There are two guitars in this part, I'll label them lead and rhythm
¬¬¬¬¬¬¬¬¬¬¬¬¬¬¬¬¬¬¬¬¬¬¬¬¬¬¬¬¬¬¬¬¬¬¬¬¬¬¬¬¬¬¬¬¬¬¬¬¬¬¬¬¬¬¬¬¬¬¬¬¬¬¬¬¬¬¬¬¬¬¬¬¬¬¬

---Interlude---

Lead/Rhythm:
E|-----------------------------------------------------------------------|
B|-----------------------------------------------------------------------|
G|-4-4-4-4-4-4-4-4-------------------------------------------------------| X2
D|-4-4-4-4-4-4-4-4-5-5-5-5-5-5-5-5-7-7-7-7-7-7-7-7-4-4-4-4-4-4-4-4-------|
A|-2-2-2-2-2-2-2-2-5-5-5-5-5-5-5-5-7-7-7-7-7-7-7-7-4-4-4-4-4-4-4-4-------|
D|-----------------5-5-5-5-5-5-5-5-7-7-7-7-7-7-7-7-4-4-4-4-4-4-4-4-------|

Lead:
E|-10-10-10-9-9-7-7-5-5-5-5-5-5-5-5-5------------------------------------|-|
B|-----------------------------------------------------------------------| |
G|-----------------------------------------------------------------------| |
D|-----------------------------------------------------------------------| |
A|-----------------------------------------------------------------------| |
D|-----------------------------------------------------------------------| |
                                                                         | X2
E|-10-10-10-9-9-7-7-12-12-12-12-12-12-12-12-12---------------------------| |
B|-----------------------------------------------------------------------| |
G|-----------------------------------------------------------------------| |
D|-----------------------------------------------------------------------| |
A|-----------------------------------------------------------------------| |
D|-----------------------------------------------------------------------|-|

Rhythm:
E|-----------------------------------------------------------------------|
B|-----------------------------------------------------------------------|
G|-4-4-4-4-4-4-4-4-------------------------------------------------------|
D|-4-4-4-4-4-4-4-4-5-5-5-5-5-5-5-5-7-7-7-7-7-7-7-7-4-4-4-4-4-4-44--------|
A|-2-2-2-2-2-2-2-2-5-5-5-5-5-5-5-5-7-7-7-7-7-7-7-7-4-4-4-4-4-4-44--------|
D|-----------------5-5-5-5-5-5-5-5-7-7-7-7-7-7-7-7-4-4-4-4-4-4-44--------|
                                                           . . .
E|-----------------------------------------------------------------------|
B|-----------------------------------------------------------------------|
G|-4-4-4-4-4-4-4-4-------------------------------------------------------|
D|-4-4-4-4-4-4-4-4-5-5-5-5-------5-7-7-7-7-7-7-7-7-4-4-4-4-4-4-4-4-------|
A|-2-2-2-2-2-2-2-2-5-5-5-5-------5-7-7-7-7-7-7-7-7-4-4-4-4-4-4-4-4-------|
D|-----------------5-5-5-5-5555555-7-7-7-7-7-7-7-7-4-4-4-4-4-4-4-4-------|
                           ......
Lead/Rhythm:
E|-----------------------------------------------------------------------|
B|-----------------------------------------------------------------------|
G|-7-7-7-7-7-7-7-7-7-7-7-7-7x--------------------------------------------|
D|-7-7-7-7-7-7-7-7-7-7-7-7-7x-PAUSE!-------------------------------------|
A|-5-5-5-5-5-5-5-5-5-5-5-5-5x--------------------------------------------|
D|-----------------------------------------------------------------------|

---Chorus---

Lead/Rhythm:
E|-----------------------------------------------------------------------|
B|-----------------------------------------------------------------------|
G|-7-7-7-7-7-7-7-7-7-7-7-7-7-7-7-7---------------------------------------|
D|-7-7-7-7-7-7-7-7-7-7-7-7-7-7-7-7-5-5-5-5-5-5-5-5-5-5-5-5-5-5-5-5-------|
A|-5-5-5-5-5-5-5-5-5-5-5-5-5-5-5-5-5-5-5-5-5-5-5-5-5-5-5-5-5-5-5-5-------|
D|---------------------------------5-5-5-5-5-5-5-5-5-5-5-5-5-5-5-5-------|

E|-----------------------------------------------------------------------|
B|-----------------------------------------------------------------------|
G|-4-4-4-4-4-4-4-4-4-4-4-4-4-4-4-4---------------------------------------|
D|-4-4-4-4-4-4-4-4-4-4-4-4-4-4-4-4-5-5-5-5-5-5-5-5-7-7-7-7-7-7-7-7-------|
A|-2-2-2-2-2-2-2-2-2-2-2-2-2-2-2-2-5-5-5-5-5-5-5-5-7-7-7-7-7-7-7-7-------|
D|---------------------------------5-5-5-5-5-5-5-5-7-7-7-7-7-7-7-7-------|

Lead:
E|-10-10-10-9-9-7-7-5-5-5-5-5-5-5-5-5------------------------------------|-|
B|-----------------------------------------------------------------------| |
G|-----------------------------------------------------------------------| |
D|-----------------------------------------------------------------------| |
A|-----------------------------------------------------------------------| |
D|-----------------------------------------------------------------------| |
                                                                         | X2
E|-10-10-10-9-9-7-7-12-12-12-12-12-12-12-12-12---------------------------| |
B|-----------------------------------------------------------------------| |
G|-----------------------------------------------------------------------| |
D|-----------------------------------------------------------------------| |
A|-----------------------------------------------------------------------| |
D|-----------------------------------------------------------------------|-|

Rhythm:
E|-----------------------------------------------------------------------|
B|-----------------------------------------------------------------------|
G|-7-7-7-7-7-7-7-7-7-7-7-7-7-7-7-7---------------------------------------|
D|-7-7-7-7-7-7-7-7-7-7-7-7-7-7-7-7-5-5-5-5-5-5-5-5-5-5-5-5-5-5-5-5-------|
A|-5-5-5-5-5-5-5-5-5-5-5-5-5-5-5-5-5-5-5-5-5-5-5-5-5-5-5-5-5-5-5-5-------|
D|---------------------------------5-5-5-5-5-5-5-5-5-5-5-5-5-5-5-5-------|

E|-----------------------------------------------------------------------|
B|-----------------------------------------------------------------------|
G|-4-4-4-4-4-4-4-4-4-4-4-4-4-4-4-4---------------------------------------|
D|-4-4-4-4-4-4-4-4-4-4-4-4-4-4-4-4-5-5-5-5-5-5-5-5-7-7-7-7-7-7-7-7-------|
A|-2-2-2-2-2-2-2-2-2-2-2-2-2-2-2-2-5-5-5-5-5-5-5-5-7-7-7-7-7-7-7-7-------|
D|---------------------------------5-5-5-5-5-5-5-5-7-7-7-7-7-7-7-7-------|

---Outro---

Lead/Rhythm:
E|-----------------------------------------------------------------------|
B|-----------------------------------------------------------------------|
G|-7---------------------------------------------------------------------|
D|-7---------------------------------------------------------------------|
A|-5---------------------------------------------------------------------|
D|-----------------------------------------------------------------------|

That's the whole song! It's pretty accurate so enjoy! Again, any suggestions,
corrections or (hopefully not) complaints, my email is at the top. Or just leave a comment!
Добавлено: 30.07.2013
Вам также может быть интересно:
Другие материалы по этой песне:
  • Аккорды и текст

Страница создана 03.07.2013
http://primanota.ru/follow-you-home/anywhere-but-home-chords.htm
Привет, Гость.
Предлагаем пройти революционный курс по гитаре.
Подарок от PrimaNota.Ru, забирай!