PrimaNota.ru - самый крупный в мире бесплатный архив песенных текстов, аккордов, табулатур и нот


Folks - Oh My Darling Clementine - таба, видео

Регистрация Запомнить меня
Войти через:  Facebook Google Twitter Vk Yandex Mail.ru

Folks - Oh My Darling Clementine - таба, видео

Печатать
Просмотров: 324
Уроки эстрадного вокала в Санкт-Петербурге
Folks
Oh my darling Clementine

Tabbed by -|-Morgoth-|-
e-m@il: masterzecke@gmx.de



That's a very simple version, but it sounds quite good



e--0-0-0----0-0-0------0--1--3--3--1--0-------
h--------1--------1----------------------3----
g---------------------------------------------
D---------------------------------------------
A---------------------------------------------
E---------------------------------------------

Oh my darling, oh my darling, oh my darling Clementine


e------------------------------------------------------
h--3--5--6-6--5--3--5----------5--3----------3--1------
g----------------------5----5--------4----4------------
D------------------------------------------------------
A------------------------------------------------------
E------------------------------------------------------

Thou art lost and gone forever, Dreadful sorry, Clementine. 




Comments and suggestions are welcome

If you know a version played with chords, please let me know! 
     
Добавлено: 11.06.2013
Вам также может быть интересно:
Другие материалы по этой песне:
  • Аккорды и текст

Страница создана 11.06.2013
http://primanota.ru/folks/oh-my-darling-clementine-chords.htm
Привет, Гость.
Предлагаем пройти революционный курс по гитаре.
Подарок от PrimaNota.Ru, забирай!