PrimaNota.ru - самый крупный в мире бесплатный архив песенных текстов, аккордов, табулатур и нот


Folk Implosion - Serge - таба, видео

Регистрация Запомнить меня
Войти через:  Facebook Google Twitter Vk Yandex Mail.ru

Folk Implosion - Serge - таба, видео

Печатать
Просмотров: 111
Band: Folk Implosion
Song: Serge
Guitarist: John Davis/ Low Barlow
Tabber: Ricardo Pereda


regular tuning (e-a-d-g-b-e)

~ let ring
h hammer
p pulloff
/ slide
() ghost note - not strummed

Intro:
e -------------------------------------------------------------|
b -------------------------------------------------------------|
g -------------------------------------------------------------|
d ------------------------------------------2-1----------------|x1
a --7~-4~~~~~--2~-4~~~~------7~/9-4~~~~~~--2~---4~~~~~~~~------|
E -------------------------------------------------------------|


e -----------------------------------------------------|
b -----------------------------------------------------|
g -----------------------------------------------------|
d -----------------------------------2-1---------------|x1
a --7~-4~~~~~--2~-4~~~~----7~-4~~~-2~----4~~~-7~-4~~---|
E -----------------------------------------------------|


Loud Part:

e --5~---4~~---2~--4~~-------|
b --5~---5~~---2~--5~~-------|
g --7~---6~~---4~--6~~-------|
d --7~---6~~---4~--6~~-------|x1
a --5~---4~~---2~--4~~-------|
E ---------------------------|

e --5~---4~~---2~--4~~-------|
b --5~---5~~---3~--4~~-------|
g --7~---6~~---4~--6~~-------|
d --7~---6~~---4~--6~~-------|x1
a --5~---4~~---2~--4~~-------|
E ---------------------------|

                                            quiet bit....
e ------------------------------4----------|----------------------------|
b ---------------------------4h5--5p4/2~~~~|----------------------------|
g -----------------------------------------|----------------------------|
d --6~~~-----------------------------------|--6-6-----------------------|x1
a -------6--9~~~--5-4~~~~~~~---------------|------6-6-9-9-----5-5-4-4---|
E -----------------------------------------|----------------------------|

  
e -------------------------------------|
b -------------------------------------|
g -------------------------------------|
d --6~~~~~~----------------------------|x1
a ---------7~~~~~~(6)~-4~~~~~~~-6~~~~~~|
E -------------------------------------|


e ----------------------------------------------------4--------|
b -------------------------------------------------4h5--5p4/2~~|
g -------------------------------------------------------------|
d -----------------------------------2-1-----------------------|x1
a --7~-4~~~~~--2~-4~~~~----7~-4~~~-2~----4~~~-7~-4~~-----------|
E -------------------------------------------------------------|

Loud Part Again:

e --5~---4~~---2~--4~~-------|
b --5~---5~~---2~--5~~-------|
g --7~---6~~---4~--6~~-------|
d --7~---6~~---4~--6~~-------|x1
a --5~---4~~---2~--4~~-------|
E ---------------------------|

e --5~---4~~---2~--4~~-------|
b --5~---5~~---3~--4~~-------|
g --7~---6~~---4~--6~~-------|
d --7~---6~~---4~--6~~-------|x1
a --5~---4~~---2~--4~~-------|
E ---------------------------|

e --5~---4~~---2~--4~~-------|
b --5~---5~~---2~--5~~-------|
g --7~---6~~---4~--6~~-------|
d --7~---6~~---4~--6~~-------|x1
a --5~---4~~---2~--4~~-------|
E ---------------------------|

e --5~---4~~---2~--4~~------4--------|
b --5~---5~~---3~--4~~---4h5--5p4/2--|
g --7~---6~~---4~--6~~---------------|
d --7~---6~~---4~--6~~---------------|x1
a --5~---4~~---2~--4~~---------------|
E -----------------------------------|

                                            quiet bit....
e ------------------------------4----------|----------------------|
b ---------------------------4h5--5p4/2~~~~|----------------------|
g -----------------------------------------|----------------------|
d --6~~~-----------------------------------|--6-6-----------------|
a -------6--9~~~--5-4~~~~~~~---------------|------6-6-9-9-----5-5-|
E -----------------------------------------|----------------------|
                                                                 ***
guitars 1 & 2 mix parts here (PLAY TOGETHER):                                             

        

GUIT 1
e --------------------------------------------------------------4----------|
b -----------------------------------------------------------4h5--5p4/2~~--|
g ------------------------------------ ------------------------------------|
d ----------------------------2-1------------------------------------------|
a --7~-4~~-2~/4~~~-7~/9-4~~-2~----4~~~-7~-4~~-2~/4~~~-7~/9-4---------------|
E -------------------------------------------------------------------------|

GUIT 2
e -------------------------------------------------------------------------|
b -------------------------------------------------------------------------|
g ------------------------------------ ------------------------------------|
d ----------------------------2-1-------------------------------2-1--------|
a --7~-4~~-2~/4~~~-7~/9-4~~-2~----4~~~-7~-4~~-2~/4~~~-7~/9-4--2-----4~~~---|
E -------------------------------------------------------------------------|

THEN:

GUIT 1
e -------------------------------------------------------------------------|
b -------------------------------------------------------------------------|
g ------------------------------------ ------------------------------------|
d ----------------------------2-1--------------------------------2-1-------|
a --7~-4~~-2~/4~~~-7~/9-4~~-2~----4~~~--7~-4~~-2~/4~~~-7~/9-4--2~----4~~---|
E -------------------------------------------------------------------------|

GUIT 2

e --5~---4~~-------2~--4~~-----4--------5~--4~---------2~--4~-----4---------
b --5~---5~~-------3~--4~~--4h5--5p4/2--5~--5~---------2~--4~--4H5--5p4/2~~-
g --7~---6~~-------4~--6~~--------------7~--6~---------4~--6~---------------
d --7~---6~~-------4~--6~~--------------7~--6~---------4~--6~---------------
a --5~---4~~-------2~--4~~--------------5~--4~---------2~--4~---------------
E --------------------------------------------------------------------------

 
quiet bit....
|-------------------------|
|-------------------------|
|-------------------------|
|--6-6--------------------|
|------6-6-9-9-----5-5-4-4| end.
|-------------------------|

this is one hell of a song....



comments /corrections please email me irotinmyskin@gmail.com
Добавлено: 25.06.2012
Другие материалы по этой песне:
  • Аккорды и текст

Страница создана 25.06.2012
http://primanota.ru/folk-implosion/serge-chords.htm
Привет, Гость.
Предлагаем пройти революционный курс по гитаре.
Подарок от PrimaNota.Ru, забирай!