PrimaNota.ru - самый крупный в мире бесплатный архив песенных текстов, аккордов, табулатур и нот


Fokofpolisiekar - Brand Suid Afrika - таба, видео

Регистрация Запомнить меня
Войти через:  Facebook Google Twitter Vk Yandex Mail.ru

Fokofpolisiekar - Brand Suid Afrika - таба, видео

Печатать
Просмотров: 137
Band: Fokofpolisiekar
Song: Brand Suid-Afrika

Intro:
E|-------------------------------------------------------|
B|-------------------------------------------------------|
G|-------------------------------------------------------|
D|-----5---7/9-9--9--9-9-7--7-----5---7-7-7--7--7-7-5--5-|
A|-5h7---7-5/7-7--7--7-7-5--5-5h7---7-5-5-5--5--5-5-3--3-|
E|-------------------------------------------------------|
                     *                          *
E|------------------------------------------------------------|
B|------------------------------------------------------------|
G|------------------------------------------------------------|
D|-----5---7/9-9--9--9-9-7--7-----5---7-7-7--7--7-7-5--5--7~--|
A|-5h7---7-5/7-7--7--7-7-5--5-5h7---7-5-5-5--5--5-5-3--3--5~--|
E|------------------------------------------------------------|
                     *                          *
Добавлено: 16.03.2012
Другие материалы по этой песне:
  • Аккорды и текст

Страница создана 16.03.2012
http://primanota.ru/fokofpolisiekar/brand-suid-afrika-chords.htm
Привет, Гость.
Предлагаем пройти революционный курс по гитаре.
Подарок от PrimaNota.Ru, забирай!