PrimaNota.ru - самый крупный в мире бесплатный архив песенных текстов, аккордов, табулатур и нот


Foghat - Stone Blue - текст песни, таба, видео

Регистрация Запомнить меня
Войти через:  Facebook Google Twitter Vk Yandex Mail.ru

Foghat - Stone Blue - текст песни, таба, видео

Печатать
Просмотров: 162
As recorded by Foghat
                        (From the 1978 Album STONE BLUE)

Words and Music by Lonesome Dave Peverett
Transcribed by Tone Jone's

           D                    G                   F/A                   C
      x x 0 2 3 2          3 x 0 0 0 3          x x 7 5 6 x          x x 5 5 5 x

          G/B                 DVII                   A                Asus2add4
      x x 9 7 8 x          x x 7 7 7 x          x 0 2 2 2 x          x 0 2 4 3 x

          F#m                  DX                   G/D               D(type 3)
    x 9 11 11 10 x      10 12 12 11 10 10    10 10 12 12 12 x        x 5 7 7 7 5

Gtr I (E A D G B E) - 'Dist Gtr.'
Gtr II (E B E G# B E) - 'Dist Gtr.Open E Tuning'
Gtr III (E A D G B E) - 'Dist Gtr.'
Gtr IV (E B E G# B E) - 'Dist Gtr. Open E Tuning'

 Intro
  Fast Rock Q=174
 4/4
  Gtr III
  H    Q.   E     W                 H       Q.   E
|------5----5-||------------------|---------5----5-|
|------3----2-||o-----------------|---------3----2-|
|------4----2-||------------------|---------4----2-|
|-------------||------------------|----------------|
|-------------||o-----------------|----------------|
|-------------||------------------|----------------|
|
| Gtr II
| H    Q.   E     E E E E E E E E   E E E E Q.   E
|------5----5-||------------------|---------5----5-|
|------5----5-||o-----------------|---------5----5-|
|------6----5-||------------------|---------6----5-|
|------7----5-||------------------|---------7----5-|
|------5----5-||o---5-7-5-5-5-7-5-|---------5----5-|
|------5----5-||----5-5-5-5-5-5-5-|---5-5-5-5----5-|
|
| Gtr I
| H    Q.   E     E E E E E E E E   E E E E Q.   E
|-------------||------------------|----------------|
|------3----2-||o-----------------|---------3----2-|
|------4----2-||----------------2-|---------4----2-|
|------2----2-||----2-4-2-2---4-2-|-----4-2-2----2-|
|------0----0-||o---0-0-0-0-0-0---|---0-0-0-0----0-|
|-------------||------------------|----------------|


                   1.
  W                 H       Q.   E
|-----------------|---------5----5--||
|-----------------|---------3----2-o||
|-----------------|---------4----2--||
|-----------------|-----------------||
|-----------------|----------------o||
|-----------------|-----------------||
|
| E E E E E E E E   E E E E Q.   E
|-----------------|---------5----5--||
|-----------------|---------5----5-o||
|-----------------|---------6----5--||
|-----------------|---------7----5--||
|---5-7-5-5-5-7-5-|---5-7-5-5----5-o||
|---5-5-5-5-5-5-5-|---5-5-5-5----5--||
|
| E E E E E E E E   E E E E Q.   E
|-----------------|-----------------||
|-----------------|---------3----2-o||
|---------------2-|---------4----2--||
|---2-4-2-2---4-2-|-----2-4-2----2--||
|---0-0-0-0-0-0---|---0-0-0-0----0-o||
|-----------------|-----------------||


                          Verse
  2.
  Gtr II
  E a E E E  E  E  E  E    E  E  E  E  E  E  Q      E E S S E E E E  E
|-----------------------||------------------------|--------------------|
|-----------------------||------------------------|--------------------|
|-----------------------||------------------------|--------------------|
|-----------------------||------------------------|---------5----------|
|-5---------------------||---12-14-12-12-12-14\---|---5-6s7---7-5------|
|-5-7s9-9-9-10-10-11-11-||-0-12-12-12-12-12-12\---|---5---------5-5s10-|
|
| Gtr I
|                          PM---------------|
| E   E E E  E  E  E  E    E  E  E  E  E  E  E  E   E E E   E E E E  E
|-----------------------||------------------------|--------------------|
|-----------------------||------------------------|--------------------|
|-----2-----------------||------------------------|--------------------|
|-----2-----------------||----------------------2-|-----4-----5---4--2-|
|-------4-4--5--5--6--6-||-2--2--4--2--2--2--4--0-|---0-0---0-0-0-0--0-|
|-----------------------||-0--0--0--0--0--0--0----|--------------------|


   E  E  E  E  E  E  Q      E E e E E E E  E
|-------------------------|------------------|
|-------------------------|------------------|
|-------------------------|------------------|
|-------------------------|------------------|
|-12-12-14-12-12-12-14\---|-x-5-8-5-7-5------|
|-12-12-12-12-12-12-12\---|-x-5-5-----5-5s10-|
|
|  E  E  E  E  E  E  E  E   E E E E E E E  E
|-------------------------|------------------|
|-------------------------|------------------|
|-------------------------|----------------0-|
|-----------------------2-|-----4---5-2-4--0-|
|--2--2--4--2--2--2--4--0-|---0-0-0-0-0-0----|
|--0--0--0--0--0--0--0----|------------------|


   E  E  E  E  E  E  Q      E E e E E E E  E
|-------------------------|-------------------|
|-------------------------|-------------------|
|-------------------------|-------------------|
|-------------------------|-------------------|
|-12-12-14-12-12-12-14\---|-x-5-8-5-7-5-------|
|-12-12-12-12-12-12-12\---|-x-5-5---5-5-5s10--|
|
|  PM---------------|
|  E  E  E  E  E  E  E  E   E E E E E E E  E
|-------------------------|-------------------|
|-------------------------|-------------------|
|-------------------------|----------------0--|
|-----------------------2-|-----4---2---4--0--|
|--2--2--4--2--2--2--4--0-|---0-0-0-0-0-0-----|
|--0--0--0--0--0--0--0----|-------------------|


   E  E  E  E  E  E  Q      q  Q  +E  E E E
|-------------------------|---------------5-|
|-------------------------|---------------5-|
|-------------------------|---------------6-|
|-------------------------|-2--2--(2)-----5-|
|-12-12-14-12-12-12-14\---|-2--2--(2)-----7-|
|-12-12-12-12-12-12-12\---|-2--2--(2)-5-5-5-|
|
|  E  E  E  E  E  E  E  E   q  H        E E
|-------------------------|-----------------|
|-------------------------|---------------3-|
|-------------------------|---------------2-|
|-------------------------|---------------0-|
|--2--2--4--2--2--2--4--0-|-4--4------------|
|--0--0--0--0--0--0--0----|-2--2------------|


                          Verse
  +E  E E E +E  E E  E      E  E  E  E  E  E  Q
|-(5)-5-5-5-(5)-5------||---------------------------|
|-(5)-5-5-5-(5)-5------||o--------------------------|
|-(6)-6-6-6-(6)-6------||---------------------------|
|-(5)-5-5-5-(5)-5------||---------------------------|
|-(7)-7-7-7-(7)-7------||o-12-12-14-12-12-12-14\----|
|-(5)-5-5-5-(5)-5-5s10-||--12-12-12-12-12-12-12\----|
|
|                           PM---------------|
| +Q.     E +Q    E  E      E  E  E  E  E  E  E  E
|----------------------||---------------------------|
|-(3)------------------||o--------------------------|
|-(2)-----2-(2)--------||---------------------------|
|-(0)-----2-(2)--------||------------------------2--|
|---------0-(0)---0--2-||o--2--2--4--2--2--2--4--0--|
|----------------------||---0--0--0--0--0--0--0-----|


  E E e E E E E  E    E  E  E  E  E  E  Q
|------------------|-------------------------|
|------------------|-------------------------|
|------------------|-------------------------|
|------------------|-------------------------|
|-x-5-8-5-7-5------|-12-12-14-12-12-12-14\---|
|-x-5-5---5-5-5s10-|-12-12-12-12-12-12-12\---|
|
|                     PM---------------|
| E E E E E E E  E    E  E  E  E  E  E  E  E
|------------------|-------------------------|
|------------------|-------------------------|
|----------------0-|-------------------------|
|-----4---2---4--0-|-----------------------2-|
|---0-0-0-0-0-0----|--2--2--4--2--2--2--4--0-|
|------------------|--0--0--0--0--0--0--0----|


  E E e E E E E  E    E  E  E  E  E  E  Q
|------------------|--------------------------|
|------------------|--------------------------|
|------------------|--------------------------|
|------------------|--------------------------|
|-x-5-8-5-7-5------|-12-12-14-12-12-12-14\----|
|-x-5-5---5-5-5s10-|-12-12-12-12-12-12-12\----|
|
|                     PM---------------|
| E E E E E E E  E    E  E  E  E  E  E  E  E
|------------------|--------------------------|
|------------------|--------------------------|
|----------------0-|--------------------------|
|-----4---2---4--0-|-----------------------2--|
|---0-0-0-0-0-0----|--2--2--4--2--2--2--4--0--|
|------------------|--0--0--0--0--0--0--0-----|


  Gtr II
  E E e E E E E  E    E  E  E  E  E  E  Q      E E E E E E E E
|------------------|-------------------------|-------------x-x-||
|------------------|-------------------------|-------------x-x-||
|------------------|-------------------------|-----------------||
|------------------|-------------------------|-----------5-----||
|-x-5-8-5-7-5------|-12-12-14-12-12-12-14\---|-x-5-8-5-7-5-----||
|-x-5-5---5-5-5s10-|-12-12-12-12-12-12-12\---|-x-5-5-----5-----||
|
| Gtr I
|                     PM---------------|
| E E E E E E E  E    E  E  E  E  E  E  E  E   E E Q   Q   E E
|------------------|-------------------------|-----------------||
|------------------|-------------------------|-----------------||
|----------------0-|-------------------------|-----------------||
|-----4---2---4--0-|-----------------------2-|---2-2---2---2-2-||
|---0-0-0-0-0-0----|--2--2--4--2--2--2--4--0-|---0-0---0---0-0-||
|------------------|--0--0--0--0--0--0--0----|-----------------||


 Chorus
                  2/4       4/4
  Gtr III
  Q.   E H         W         H     Q.    E   W
|-5----5---------|---------|-------5-----5-|------------------|
|-3----2---------|---------|-------3-----2-|------------------|
|-4----2---------|---------|-------4-----2-|------------------|
|----------------|---------|---------------|------------------|
|----------------|---------|---------------|------------------|
|----------------|---------|---------------|------------------|
|
| Gtr II
| Q.   E E E E E   E E E E   Q  Q  Q   E E   E E E E E E E E
|-5----5---------|---------|-------5---5-5-|------------------|
|-5----5---------|---------|-------5---5-5-|------------------|
|-6----5---------|---------|-------6---6-6-|------------------|
|-7----5---------|---------|-3--3--5---5-5-|------------------|
|-5----5---5-7-5-|-5-5-7-5-|-3--3--7---7-7-|---5-7---5-5-7----|
|-5----5---5-5-5-|-5-5-5-5-|-3--3--5---5-5-|---5-5-5-5-5-5-5--|
|
| Gtr I
| Q.   E E E E E   E E E E   H     Q   E E   E E E E E E E E
|----------------|---------|-3-------------|------------------|
|-3----2---------|---------|-0-----3---3-2-|------------------|
|-4----2---------|---------|-0-----2---2-2-|------------------|
|-2----2-----4---|-2-2-4---|-0-----0---0-2-|---2-4---2-2-4-2--|
|-0----0---0-0-0-|-0-0-0-0-|-x-----------0-|---0-0-0-0-0-0-0--|
|----------------|---------|-3-------------|------------------|


                  2/4       4/4
  Gtr III
  Q.   E H         W         H     Q.    E   W
|-5----5---------|---------|-------5-----5-|-------------------||
|-3----2---------|---------|-------3-----2-|------------------o||
|-4----2---------|---------|-------4-----2-|-------------------||
|----------------|---------|---------------|-------------------||
|----------------|---------|---------------|------------------o||
|----------------|---------|---------------|-------------------||
|
| Gtr II
| Q.   E E E E E   E E E E   Q  Q  Q   E E   E E E E E E E E
|-5----5---------|---------|-------5---5-5-|-------------------||
|-5----5---------|---------|-------5---5-5-|------------------o||
|-6----5---------|---------|-------6---6-6-|-------------------||
|-7----5---------|---------|-3--3--5---5-5-|-------------------||
|-5----5---5-7-5-|-5-5-7-5-|-3--3--7---7-7-|---5-7---5-5-7----o||
|-5----5---5-5-5-|-5-5-5-5-|-3--3--5---5-5-|---5-5-5-5-5-5-5---||
|
| Gtr I
| Q.   E E E E E   E E E E   H     Q   E E   E E E E E E E E
|----------------|---------|-3-------------|-------------------||
|-3----2---------|---------|-0-----3---3-2-|------------------o||
|-4----2---------|---------|-0-----2---2-2-|---------------2---||
|-2----2-----4---|-2-2-4---|-0-----0---0-2-|---2-4---2-2-4-2---||
|-0----0---0-0-0-|-0-0-0-0-|-x-----------0-|---0-0-0-0-0-0----o||
|----------------|---------|-3-------------|-------------------||


 Guitar Solo
  Gtr IV
            ~~~
  a H      +H           E  E E E E E E E
|--------------------|-------------5-------|
|-5s7------(7)-------|--7s=5---5-7---7-5---|
|--------------------|-------5-------------|
|--------------------|---------------------|
|--------------------|---------------------|
|--------------------|---------------------|
|
| Gtr II
|   E E Q   E  Q   E   +E  E q   E Q   E
|--------------------|---------------------|
|--------------------|---------------------|
|--------------------|---------------------|
|--------------------|---------------------|
|---x-x-2---0--2---5-|-(5)-2-2---0-2---5S==|
|---x-x-2---0--2---5-|-(5)-2-2---0-2---5S==|
|
| Gtr I
|   E E q   E  E E E   +E  E q   E E E S S
|--------------------|-----------------2-2-|
|--------------------|-----------------3-3-|
|------------------2-|-(2)-------------2-2-|
|---x-x-4---2--4---2-|-(2)-4-4---2-4---0-0-|
|---x-x-4---2--4-----|-----4-4---2-4-------|
|--------------------|---------------------|


             ~~~~~~~~~~~~~~~~~~
   Q   Q     H             +H.                   Q
|-----------------------|------------------------------|
|--7s==6s====7----------|--(7)-------------------------|
|-----------------------|------------------------------|
|-----------------------|------------------------------|
|-----------------------|------------------------------|
|-----------------------|------------------------------|
|
|  Q   E  E  E  E  E  E    +E   E  E  E  +E   E  Q
|-----10-10-10-10-10-10-|-(10)-10-10-10-(10)-10--------|
|-----10-10-10-10-10-10-|-(10)-10-10-10-(10)-10--------|
|-----10-10-10-10-10-11-|-(11)-11-11-10-(10)-10--------|
|-----10-10-10-10-10-10-|-(10)-10-10-10-(10)-10--------|
|-10--10-10-10-10-10-12-|-(12)-12-12-10-(10)-10-10\----|
|-10--10-10-10-10-10-10-|-(10)-10-10-10-(10)-10-10\----|
|
|  Q   Q     E  E  E  E    +E   E  E  E  +E   E  E  E
|--2---2-----2--2--2--3-|--(3)--3--3--2--(2)--2--2--2--|
|--3---3-----3--3--3--0-|--(0)--0--0--3--(3)--3--3--3--|
|--2---2-----2--2--2--0-|--(0)--0--0--2--(2)--2--2--2--|
|--0---0-----0--0--0--0-|--(0)--0--0--0--(0)--0--0--0--|
|-----------------------|------------------------------|
|-----------------------|------------------------------|


  Q.     +E  Q   +E  E    Q.     +E  Q   +E  E
|----------------------|-------------------------|
|----------------------|-------------------------|
|-3------(3)s5---(5)s1-|--1------(1)s3---(3)s2---|
|----------------------|-------------------------|
|----------------------|-------------------------|
|----------------------|-------------------------|
|
| E  E Q     E Q     E   +E  E q     E Q     E
|----------------------|-------------------------|
|----------------------|-------------------------|
|----------------------|-------------------------|
|----------------------|-------------------------|
|-x--x-2-----0-2-----5-|-(5)-2-2-----0-2-----5S==|
|-x--x-2-----0-2-----5-|-(5)-2-2-----0-2-----5S==|
|
| E  E q     E E  E  E   +E  E q     E E  E  S S
|----------------------|---------------------2-2-|
|----------------------|---------------------3-3-|
|--------------------2-|-(2)-----------------2-2-|
|-x--x-4-----2-4-----2-|-(2)-4-4-----2-4-----0-0-|
|-x--x-4-----2-4-------|-----4-4-----2-4---------|
|----------------------|-------------------------|


   ~~~                       ~~~~
   H.               Q        H.                   E  E   E E E E E E E E
|------------------------|-----------------------------|------------------|
|------------------------|-----------------------------|-5---5---5---5----|
|------------------------|---------------------------5-|---5---5---5---5--|
|--2----------------2s===|===5-------------------------|------------------|
|------------------------|-----------------------------|------------------|
|------------------------|-----------------------------|------------------|
|
|  Q    E  E  E  E  E  E    +E   E  E  E  +E   E  Q      E E Q   E Q   E
|------10-10-10-10-10-10-|-(10)-10-10-10-(10)-10-------|------------------|
|------10-10-10-10-10-10-|-(10)-10-10-10-(10)-10-------|------------------|
|------10-10-10-10-10-11-|-(11)-11-11-10-(10)-10-------|------------------|
|------10-10-10-10-10-10-|-(10)-10-10-10-(10)-10-------|------------------|
|-10---10-10-10-10-10-12-|-(12)-12-12-10-(10)-10-10\---|-x-x-2---0-2---5--|
|-10---10-10-10-10-10-10-|-(10)-10-10-10-(10)-10-10\---|-x-x-2---0-2---5--|
|
|  Q    Q     E  E  E  E    +E   E  E  E  +E   E  E  E   E E q   E E E E
|--2----2-----2--2--2--3-|--(3)--3--3--2--(2)--2--2--2-|------------------|
|--3----3-----3--3--3--0-|--(0)--0--0--3--(3)--3--3--3-|------------------|
|--2----2-----2--2--2--0-|--(0)--0--0--2--(2)--2--2--2-|---------------2--|
|--0----0-----0--0--0--0-|--(0)--0--0--0--(0)--0--0--0-|-x-x-4---2-4---2--|
|------------------------|-----------------------------|-x-x-4---2-4------|
|------------------------|-----------------------------|------------------|


  E E E E +E  E E E      E E  E  E  E  E  E a  E
|-----5---------------|--------------------------|
|-5s7---7-(7)s6s7-----|--5----5-----5-----5-5s=7-|
|-----------------5---|----5-----5-----5---------|
|---------------------|--------------------------|
|---------------------|--------------------------|
|---------------------|--------------------------|
|
| E E q    E  Q   E      Q    E  E  E  E  E    E
|---------------------|------10-10-10-10-10---10-|
|---------------------|------10-10-10-10-10---10-|
|---------------------|------10-10-10-10-10---11-|
|---------------------|------10-10-10-10-10---10-|
|-5-2-2----0--2---5S==|=10---10-10-10-10-10---12-|
|-5-2-2----0--2---5S==|=10---10-10-10-10-10---10-|
|
| E E q    E  E E S S    Q    Q     E  E  E    E
|-----------------2-2-|--2----2-----2--2--2----3-|
|-----------------3-3-|--3----3-----3--3--3----0-|
|-2---------------2-2-|--2----2-----2--2--2----0-|
|-2-4-4----2--4---0-0-|--0----0-----0--0--0----0-|
|---4-4----2--4-------|--------------------------|
|---------------------|--------------------------|


                                          ~~~~~~
    E   E  E  E  +S  S  E  E  E   E.  S E E +E  E E E
|---5---------------------------|-5s==7----------------|
|-------7s=5--7--(7)s5-----5--7-|-------7-7-(7)---5-7--|
|-----------------------5-------|---------------5------|
|-------------------------------|----------------------|
|-------------------------------|----------------------|
|-------------------------------|----------------------|
|
|  +E   E  E  E  +E     E  Q      E E   Q    E  Q   E
|-(10)-10-10-10-(10)---10-------|----------------------|
|-(10)-10-10-10-(10)---10-------|----------------------|
|-(11)-11-11-10-(10)---10-------|----------------------|
|-(10)-10-10-10-(10)---10-------|----------------------|
|-(12)-12-12-10-(10)---10-10\---|-x-x---2----0--2---5--|
|-(10)-10-10-10-(10)---10-10\---|-x-x---2----0--2---5--|
|
|  +E   E  E  E  +E     E  E  E   E E   q    E  E E E
|--(3)--3--3--2--(2)----2--2--2-|----------------------|
|--(0)--0--0--3--(3)----3--3--3-|----------------------|
|--(0)--0--0--2--(2)----2--2--2-|-------------------2--|
|--(0)--0--0--0--(0)----0--0--0-|-x-x---4----2--4---2--|
|-------------------------------|-x-x---4----2--4------|
|-------------------------------|----------------------|


                              G
   W
              ~~~~~~
   E.   +S  E E +Q.     +E
|--7----(7)s5-5-(5)-----(5)s==|
|-----------------------------|
|-----------------------------|
|-----------------------------|
|-----------------------------|
|-----------------------------|
|
| +E  E     q    E  Q    E
|-----------------------------|
|-----------------------------|
|-----------------------------|
|-----------------------------|
|-(5)-2-----2----0--2----5----|
|-(5)-2-----2----0--2----5----|
|
| +E  E     q    E  E E  S  S
|------------------------2--2-|
|------------------------3--3-|
|-(2)--------------------2--2-|
|-(2)-4-----4----2--4----0--0-|
|-----4-----4----2--4---------|
|-----------------------------|


  D                G                 D
 tr I
   Q   Q   E E  E  E        +E  E  E  E +E E  Q
   |   |   | |  |  |         |  |  |  |  | |  |
   /   /   / /  /  /         /  /  /  /  / /  x

   ~~~~~~~~~~~~~~~~
   Q   Q   Q    E.    +S     E  E  E  E  Q    Q
|-14--14--14---14----(14)s|=17s14-14s12-14---16--||
|-------------------------|----------------------||
|-------------------------|----------------------||
|-------------------------|----------------------||
|-------------------------|----------------------||
|-------------------------|----------------------||
|
|  W                         W
|-------------------------|----------------------||
|-------------------------|----------------------||
|-------------------------|----------------------||
|-------------------------|----------------------||
|-------------------------|----------------------||
|-------------------------|----------------------||
|
|  W                         W
|-------------------------|----------------------||
|-------------------------|----------------------||
|-------------------------|----------------------||
|-------------------------|----------------------||
|-------------------------|----------------------||
|-------------------------|----------------------||


 Bridge
  F/A              C
  Gtr I
   Q   Q    Q    E  E    +E  E Q  Q   E  E
   |   |    |    |  |     |  | |  |   |  |
   /   /    /    /  /     /  / /  /   /  /

  Gtr IV
   ~~~~~~~~~~~~~~~~~~~~~~~~~~
   H       +Q.      E    +H.          E  E
|-17------(17)-----15-|-(15)---------15-15-|
|---------------------|--------------------|
|---------------------|--------------------|
|---------------------|--------------------|
|---------------------|--------------------|
|---------------------|--------------------|
|
| Gtr II
|  Q   Q    Q    Q        Q    Q  Q   q
|--8---8----8----8----|---8----8--8---8----|
|--8---8----8----8----|---8----8--8---8----|
|--9---9----9----9----|---8----8--8---8----|
|--8---8----8----8----|---8----8--8---8----|
|-10--10---10---10----|---8----8--8---8----|
|--8---8----8----8----|---8----8--8---8----|


     G/B               DVII
      Q      Q   Q   E  E    +E   E  Q     Q   E E
      |      |   |   |  |     |   |  |     |   | |
      /      /   /   /  /     /   /  /     /   / /

                              ~~~~
   a  H.             E  E    +H.               Q
|-15s19-------------19s17-|-(17)-------------------|
|-------------------------|------------------------|
|-------------------------|------------------------|
|-------------------------|------------------------|
|-------------------------|------------------------|
|-------------------------|------------------------|
|
|     E   E  Q   Q   E  E     E   E  E  E  Q   E E
|----10--10-10--10--10-10-|--10--10----------------|
|----10--10-10--10--10-10-|--10--10----------------|
|----11--11-11--11--11-11-|--10--10----------------|
|----10--10-10--10--10-10-|--10--10----------------|
|----12--12-12--12--12-12-|--10--10-12p10-10-------|
|----10--10-10--10--10-10-|--10--10-10----10--12-0-|


  Gtr IV
  E S S E E +Q   S E.      E   S  S  E  E  +Q    S E.
|-----------------------|-------------------------------|
|---9s7-5-7-(7)s=9------|-----12s10----10-(10)s=12------|
|-----------------------|-----------12------------------|
|-----------------------|-------------------------------|
|-----------------------|-------------------------------|
|-----------------------|-------------------------------|
|
| Gtr II
| E E   E E  q   E    E   +E   E     E  E   q    E    E
|-----------------------|-------------------------------|
|-----------------------|-------------------------------|
|-----------------------|-------------------------------|
|---7---9-7--7---x----7-|-(7)--7-----9--7---7----x----7-|
|---5---5-5--5---x----5-|-(5)--5-----5--5---5----x----5-|
|-0-0---0-0--0---x----0-|-(0)--0-----0--0---0----x----0-|
|
| Gtr I
| E E   E E  Q   E    E    E   E     E  E   Q    E    E
|-----------------------|-------------------------------|
|-----------------------|-------------------------------|
|-----------------------|-------------------------------|
|---------------------2-|-----------------------------2-|
|---2---4-2--2---4----2-|------2-----4--2---2----4----2-|
|---0---0-0--0---0------|------0-----0--0---0----0------|


                                2/4
   E   S  S  E  E  +E   E E  E    +Q     +E   E
|------------------------------|------------------||
|-----17s14----15-(15)s17---15-|-(15)---(15)-12s==||
|-----------15-----------------|------------------||
|------------------------------|------------------||
|------------------------------|------------------||
|------------------------------|------------------||
|
| +E   E     E  E   q     E  E    +E  E   E   E
|------------------------------|------------------||
|------------------------------|------------------||
|------------------------------|------------------||
|-(7)--7-----9--7---7-----x--7-|--(7)-7---9---7---||
|-(5)--5-----5--5---5-----x--5-|--(5)-5---5---5---||
|-(0)--0-----0--0---0-----x--0-|--(0)-0---0---0---||
|
|  E   E     E  E   Q     E  E     E  E   E   E
|------------------------------|------------------||
|------------------------------|------------------||
|------------------------------|------------------||
|----------------------------2-|------------------||
|------2-----4--2---2-----4--2-|------2---4---2---||
|------0-----0--0---0-----0----|------0---0---0---||


 Chorus
 4/4                   2/4       4/4
   E   E  E E H         W         W              W
|---------------------|---------|--------------|-----------------|
|-10------------------|---------|--------------|-----------------|
|-----10s12-----------|---------|--------------|-----------------|
|---------------------|---------|--------------|-----------------|
|---------------------|---------|--------------|-----------------|
|---------------------|---------|--------------|-----------------|
|
|  Q.       E E E E E   E E E E   Q  Q  Q  E E   E E q   E E q
|--5--------5---------|---------|-------5--5-5-|-----------------|
|--5--------5---------|---------|-------5--5-5-|-----------------|
|--6--------6---5-6-5-|-5-5-6p5-|-------6--6-5-|---5-6---5-5-6---|
|--7--------7---5-5-5-|-5-5-5---|-3--3--5--5-5-|---5-5---5-5-5---|
|--5--------5---5-7-5-|-5-5-7p5-|-3--3--7--7-5-|---5-7---5-5-7---|
|--5--------5---5-5-5-|-5-5-5---|-3--3--5--5-5-|---5-5---5-5-5---|
|
|  Q.       E E E E E   Q   E E   Q  Q  Q  E E   E E E E Q   E E
|---------------------|---------|-3--3--2--2---|-----------------|
|--3--------2---------|---------|-0--0--3--3-2-|-----------------|
|--4--------2---------|---------|-0--0--2--2-2-|---------------2-|
|--2--------2---2-4---|-2---4-2-|-0--0--0--0-2-|---2-4---2---4-2-|
|--0--------0---0-0-0-|-0---0-0-|-x--x-------0-|---0-0-0-0---0-0-|
|---------------------|---------|-3--3---------|-----------------|


                  2/4       4/4
  Gtr II
  Q.   E E E E E   E E E E   Q  Q  Q  E E   E E H.
|-5----5---------|---------|-------5--5-5-|---x-5-----||
|-5----5---------|---------|-------5--5-5-|---x-5-----||
|-6----6---------|---------|-------6--6-5-|---x-6-----||
|-7----7---------|---------|-3--3--5--5-5-|---x-5-----||
|-5----5---5-7-5-|-5-5-7---|-3--3--7--7-5-|---x-7-----||
|-5----5---5-5-5-|-5-5-5-5-|-3--3--5--5-5-|---x-5-----||
|
| Gtr I
| Q.   E E E E E   Q   E E   Q  Q  Q  E E   E E H.
|----------------|---------|-3--3--2--2---|-----------||
|-3----2---------|---------|-0--0--3--3-2-|-----3-----||
|-4----2---------|---------|-0--0--2--2-2-|-----4-----||
|-2----2---2-4---|-2---4-2-|-0--0--0--0-2-|-----2-----||
|-0----0---0-0-0-|-0---0-0-|-x--x-------0-|---0-0-----||
|----------------|---------|-3--3---------|-----------||


 Breakdown
  A                 Asus2Add4                Asus2Add4
  Gtr I
  Q  Q  H      H    Q.   E   W          H    Q.   E
  |                 |    |                   |    |
  /                 /    /                   /    /

  Gtr II
  q  Q  H      H    Q.   E   W          H    Q.   E
|-5----------|------5----5-|----------|------5----5--|
|-5----------|------5----5-|----------|------5----5--|
|-5----------|------6----5-|----------|------6----5--|
|-5----------|------7----5-|----------|------7----5--|
|-5----------|------5----5-|----------|------5----5--|
|-5----------|------5----5-|----------|------5----5--|


                  Asus2Add4                Asus2Add4
  W          H    Q.   E   W          H    Q.   E
                  |    |                   |    |
                  /    /                   /    /

  W          H    Q.   E   W          H    Q.   E
|----------|------5----5-|----------|------5----5--|
|----------|------5----5-|----------|------5----5--|
|----------|------6----5-|----------|------6----5--|
|----------|------7----5-|----------|------7----5--|
|----------|------5----5-|----------|------5----5--|
|----------|------5----5-|----------|------5----5--|


                  Asus2Add4           G    D   A
  W          H    Q.   E   W          q  E E E E Q
                  |    |              |    |   | |
                  /    /              /    /   / /

  W          H    Q.   E   W          q  E E E E Q
|----------|------5----5-|----------|-3--x-5---x-5---|
|----------|------5----5-|----------|-3--x-5---x-5---|
|----------|------6----5-|----------|-3--x-6---x-5---|
|----------|------7----5-|----------|-3--x-5---x-5---|
|----------|------5----5-|----------|-3--x-7---x-5---|
|----------|------5----5-|----------|-3--x-5---x-5---|


                          Guitar Solo
                             F#m                              DX
              3/4         4/4
  +W           +H    Q       W             +W                  W
   |            |            |              |                  |
   /            /            /              /                  /

  Gtr IV
                                 ~~~~~~~~~~~~~~                ~~
   W            W          a Q  +H.        +H     E E E E      W
|------------|----------||---------------|----------------|---------|
|------------|----------||-5s7--(7)------|-(7)----7s5-5s3-|----3----|
|------------|----------||---------------|----------------|---------|
|------------|----------||---------------|----------------|---------|
|------------|----------||---------------|----------------|---------|
|------------|----------||---------------|----------------|---------|
|
| Gtr II
| +W            H    Q       W             +W               a  W
|-(5)--------|--5-------||---------------|----------------|---------|
|-(5)--------|--5-------||---------------|----------------|---------|
|-(5)--------|--5-------||---------------|----------------|---------|
|-(5)--------|--5-------||---2-----------|-(2)------------|---------|
|-(5)--------|--5-------||---2-----------|-(2)------------|-2s10----|
|-(5)--------|--5-------||---2-----------|-(2)------------|-2s10----|


  G/D     DX       F#m
    H       H      W
    |       |      |
    /       /      /

    ~~~~
   +W              Q  +Q   Q  +E  E
|----------------|------------------|
|--(3)-----------|------------------|
|----------------|-3--(3)s=5--(5)s1-|
|----------------|------------------|
|----------------|------------------|
|----------------|------------------|
|
|   H       H      W
|-!10-----!10----|------------------|
|-!10-----!10----|------------------|
|-!11-----!10----|------------------|
|-!10-----!10----|-2----------------|
|-!12-----!10----|-2----------------|
|-!10-----!10----|-2----------------|


                       D(type 3)    G/D     DX
  +W                    W             H       H
   |                    |             |       |
   /                    /             /       /

                             ~~~~~~~~~~~~
   Q.   +E  Q  +E  E    H    H       +H       H
|--------------------|------------|----------------||
|--------------------|------------|----------------||
|--1----(1)s3--(3)s1-|------------|----------------||
|--------------------|--2----2----|--(2)-----------||
|--------------------|------------|----------------||
|--------------------|------------|----------------||
|
| +H.          +Q       W             H       H
|--------------------|------------|-!10-----!10----||
|--------------------|------------|-!10-----!10----||
|--------------------|------------|-!11-----!10----||
|-(2)----------(2)---|------------|-!10-----!10----||
|-(2)----------(2)---|-10---------|-!12-----!10----||
|-(2)----------(2)S==|=10---------|-!10-----!10----||


   Chorus
    F#m
    Gtr I
    W                 +W
    |                  |
    /                  /

    Gtr II
    E E E E E E E E    E E e E E E Q
||------------------|-----------------|
||o-----------------|-----------------|
||------------------|-----------------|
||------------------|-----------------|
||o---x-2-x-x-2-x-x-|--x-x-2-x-x-2-2S=|
||----x-2-x-x-2-x-x-|--x-x-2-x-x-2-2S=|


                        1.
  DX                G/D           DX
  H        +Q.       E   +Q     E  E  +Q    E  E
  |         |        |    |     |  |   |    |  |
  /         /        /    /     x  /   /    x  x

  E E  e E  E   E E  E    E  E  E  E  +Q    Q
|----------------------|-------10-10-(10)---------||
|----------------------|----------10-(10)--------o||
|----------------------|----11----10-(10)---------||
|----------------------|----------10-(10)---------||
|-x-x-10-x--x--10---10h|=12----------------------o||
|-x-x-10-x--x--10------|-------------------10\----||


  2.
   E   E  E  E  +Q    Q         E E  E E E  E E E    E E  e E E  E Q
|--------10-10-(10)--------||---------------------|--------------------||
|-----------10-(10)--------||o--------------------|--------------------||
|-----11----10-(10)--------||---------------------|--------------------||
|-----------10-(10)--------||---------------------|--------------------||
|-12-----------------------||o----x--2-x-x--2-x-x-|--x-x--2-x-x--2-2---||
|--------------------10\---||-----x--2-x-x--2-x-x-|--x-x--2-x-x--2-2---||
|
| Gtr I
|  Q.        E  +Q    E  E      q    E E E  Q   E    q    E E E  E E E
|-----------10-(10)---x--x-||---------------------|--------------------||
|-12--------10-(10)---x--x-||o-10---10---9-10---9-|-10---10---9-10-x-x-||
|-12--------11-(11)---x--x-||--11---11---9-11---9-|-11---11---9-11-x-x-||
|-12--------12-(12)---x--x-||--11---11---9-11---9-|-11---11---9-11-x-x-||
|-12--------12-(12)---x--x-||o--9----9-9-9--9---9-|--9----9-9-9--9-x-x-||
|-10--------10-(10)---x--x-||---------------------|--------------------||


                         1.
   E E  e E  E  E  E  E     E   E  E  E  +Q      Q
|-----------------------|---------10-10-(10)-----------||
|-----------------------|------------10-(10)----------o||
|-----------------------|------11----10-(10)-----------||
|-----------------------|------------10-(10)-----------||
|--x-x-10-x--x-10----10h|==12-------------------------o||
|--x-x-10-x--x-10-------|-----------------------10\----||
|
|  Q    Q    E  E  E  E    +E   E  E  E  +E   E  E  E
|-----------------------|------------------------------||
|-----------------------|-----------------------------o||
|------11---11-11-11-12-|-(12)-12-12-11-(11)-11--x--x--||
|------12---12-12-12-12-|-(12)-12-12-12-(12)-12--x--x--||
|-12---12---12-12-12-12-|-(12)-12-12-12-(12)-12--x--x-o||
|-10---10---10-10-10-10-|-(10)-10-10-10-(10)-10--x--x--||


 2.
   W
|-------------------------||
|-------------------------||
|-------------------------||
|-------------------------||
|-------------------------||
|-------------------------||
|
|  E  E  E  E  +E   E E E
|-------------------------||
|-------------------------||
|-12-12-12-11-(11)-11-x-x-||
|-12-12-12-12-(12)-12-x-x-||
|-12-12-12-12-(12)-12-x-x-||
|-10-10-10-10-(10)-10-x-x-||


 Outro
  Gtr IV
             ~~~~~~~~~~~~~~~
   Q   +E  E H          +H         E  E E E
|--9---(9)s7----------|------------9s=7-9s7-|
|------------7--------|-(7)-----------------|
|---------------------|---------------------|
|---------------------|---------------------|
|---------------------|---------------------|
|---------------------|---------------------|
|
| Gtr II
|  E E  E  E E  E E E    E  E  e E E  E Q
|---------------------|---------------------|
|---------------------|---------------------|
|---------------------|---------------------|
|---------------------|---------------------|
|----x--2--x-x--2-x-x-|--x--x--2-x-x--2-2S==|
|----x--2--x-x--2-x-x-|--x--x--2-x-x--2-2S==|
|
| Gtr I
|  q    E  E E  Q   E    q     E E E  E E E
|---------------------|---------------------|
|-10---10----9-10---9-|-10----10---9-10-x-x-|
|-11---11----9-11---9-|-11----11---9-11-x-x-|
|-11---11----9-11---9-|-11----11---9-11-x-x-|
|--9----9--9-9--9---9-|--9-----9-9-9--9-x-x-|
|---------------------|---------------------|


              ~~~~~~~~~~~~~~~~~~
   Q   +E  E  H             +E   E  E  E   E   E  E  E
|--9---(9)s7-------------|------------------------------|
|-------------7----------|--(7)--7s=5------5------5-----|
|------------------------|-------------5-------5-----5--|
|------------------------|------------------------------|
|------------------------|------------------------------|
|------------------------|------------------------------|
|
|  E E  e  E  E  E  E  E     E   E  E  E  +Q      Q
|------------------------|---------10-10-(10)-----------|
|------------------------|------------10-(10)-----------|
|------------------------|------11----10-(10)-----------|
|------------------------|------------10-(10)-----------|
|--x-x-10--x--x-10----10h|==12--------------------------|
|--x-x-10--x--x-10-------|-----------------------10\----|
|
|  Q    Q     E  E  E  E    +E   E  E  E  +E   E  E  E
|------------------------|------------------------------|
|------------------------|------------------------------|
|------11----11-11-11-12-|-(12)-12-12-11-(11)-11--x--x--|
|------12----12-12-12-12-|-(12)-12-12-12-(12)-12--x--x--|
|-12---12----12-12-12-12-|-(12)-12-12-12-(12)-12--x--x--|
|-10---10----10-10-10-10-|-(10)-10-10-10-(10)-10--x--x--|


   Q.      +E  Q    +E  E    Q.      +E  Q    +E  E
|-------------------------|-------------------------|
|-------------------------|-------------------------|
|--3-------(3)s5----(5)s1-|--1-------(1)s3----(3)s1-|
|-------------------------|-------------------------|
|-------------------------|-------------------------|
|-------------------------|-------------------------|
|
|  E  E  E  E  E  E  E  E    E  E  e  E  E  E  Q
|-------------------------|-------------------------|
|-------------------------|-------------------------|
|-------------------------|-------------------------|
|-------------------------|-------------------------|
|-----x--2--x--x--2--x--x-|--x--x--2--x--x--2--2S===|
|-----x--2--x--x--2--x--x-|--x--x--2--x--x--2--2S===|
|
|  q     E  E  E  Q     E    q     E  E  E  E  E  E
|-------------------------|-------------------------|
|-10----10-----9-10-----9-|-10----10-----9-10--x--x-|
|-11----11-----9-11-----9-|-11----11-----9-11--x--x-|
|-11----11-----9-11-----9-|-11----11-----9-11--x--x-|
|--9-----9--9--9--9-----9-|--9-----9--9--9--9--x--x-|
|-------------------------|-------------------------|


   ~~~                              ~~~~~~~~~~
   H.               E  E     E   E  Q     +E   E  E  E
|------------------------|------------------------------||
|------------------------|---5------5-----(5)-----5--7--||
|----------------------5-|-------5-------------5--------||
|--2---------------------|------------------------------||
|------------------------|------------------------------||
|------------------------|------------------------------||
|
|  E  E  e E  E  E  E  E     E   E  E  E  +Q      Q
|------------------------|---------10-10-(10)-----------||
|------------------------|------------10-(10)-----------||
|------------------------|------11----10-(10)-----------||
|------------------------|------------10-(10)-----------||
|--x--x-10-x--x-10----10h|==12--------------------------||
|--x--x-10-x--x-10-------|-----------------------10\----||
|
|  Q     Q    E  E  E  E    +E   E  E  E  +E   E  E  E
|------------------------|------------------------------||
|------------------------|------------------------------||
|-------11---11-11-11-12-|-(12)-12-12-11-(11)-11--x--x--||
|-------12---12-12-12-12-|-(12)-12-12-12-(12)-12--x--x--||
|-12----12---12-12-12-12-|-(12)-12-12-12-(12)-12--x--x--||
|-10----10---10-10-10-10-|-(10)-10-10-10-(10)-10--x--x--||


            ~~~~~~~~~~~~~~~~~~~~~~~~~~~~~~
     E E  E E +H           +H         +E   E E E
||---5s7-----------------|-----------------------|
||o-------7-7-(7)--------|-(7)--------(7)----5-7-|
||-----------------------|-----------------5-----|
||-----------------------|-----------------------|
||o----------------------|-----------------------|
||-----------------------|-----------------------|
|
|    E E  E E  E   E E E    E  E  e E  E   E Q
||-----------------------|-----------------------|
||o----------------------|-----------------------|
||-----------------------|-----------------------|
||-----------------------|-----------------------|
||o----x--2-x--x---2-x-x-|--x--x--2-x--x---2-2S==|
||-----x--2-x--x---2-x-x-|--x--x--2-x--x---2-2S==|
|
|    q    E E  E   Q   E    q     E E  E   E E E
||-----------------------|-----------------------|
||o-10---10----9--10---9-|-10----10----9--10-x-x-|
||--11---11----9--11---9-|-11----11----9--11-x-x-|
||--11---11----9--11---9-|-11----11----9--11-x-x-|
||o--9----9-9--9---9---9-|--9-----9-9--9---9-x-x-|
||-----------------------|-----------------------|


                          1.
          ~~~~~~~~~~~~~~~~~~~~~~~~~~~~~~~~~~~~
   E E  E E +H              +H            +E   E  E  E
|--5s7-------------------|------------------------------||
|-------7-7-(7)----------|--(7)-----------(7)-----5--7-o||
|------------------------|---------------------5--------||
|------------------------|------------------------------||
|------------------------|-----------------------------o||
|------------------------|------------------------------||
|
|  E E  e E  E   E  E  E     E   E  E  E  +Q      Q
|------------------------|---------10-10-(10)-----------||
|------------------------|------------10-(10)----------o||
|------------------------|------11----10-(10)-----------||
|------------------------|------------10-(10)-----------||
|--x-x-10-x--x--10----10h|==12-------------------------o||
|--x-x-10-x--x--10-------|-----------------------10\----||
|
|  Q    Q    E   E  E  E    +E   E  E  E  +E   E  E  E
|------------------------|------------------------------||
|------------------------|-----------------------------o||
|------11---11--11-11-12-|-(12)-12-12-11-(11)-11--x--x--||
|------12---12--12-12-12-|-(12)-12-12-12-(12)-12--x--x--||
|-12---12---12--12-12-12-|-(12)-12-12-12-(12)-12--x--x-o||
|-10---10---10--10-10-10-|-(10)-10-10-10-(10)-10--x--x--||


  2.
   ~~~~~~~~~~~~~~                 ~                        ~
  +H         +E   E E E    E E  E E +S  S  E E E    E E  E E +S  S  E  E  E
|-----------------------|--5s7-------------------|--5s7----------------------|
|-(7)--------(7)----5-7-|-------7-7-(7)s5----5-7-|-------7-7-(7)s5-----5--7--|
|-----------------5-----|------------------5-----|------------------5--------|
|-----------------------|------------------------|---------------------------|
|-----------------------|------------------------|---------------------------|
|-----------------------|------------------------|---------------------------|
|
|  E  E  E E  E   E E E    E e  E E  E     Q   E    E e  E E  E     E  E  E
|-----------------------|------------------------|---------------------------|
|-----------------------|------------------------|---------------------------|
|-----------------------|------------------------|---------------------------|
|-----------------------|------------------------|---------------------------|
|--x--2--x-x--2---x-x-x-|--x-2--x-x--2-----2S==x-|--x-x-10-x--x----10----10h=|
|--x--2--x-x--2---x-x-x-|--x-2--x-x--2-----2S==x-|--x-x-10-x--x----10--------|
|
|  q     E E  E   Q   E    q    E E  E     E E E    Q    Q    E     E  E  E
|-----------------------|------------------------|---------------------------|
|-10----10----9--10---9-|-10---10----9----10-x-x-|---------------------------|
|-11----11----9--11---9-|-11---11----9----11-x-x-|------11---11----11-11-12--|
|-11----11----9--11---9-|-11---11----9----11-x-x-|------12---12----12-12-12--|
|--9-----9-9--9---9---9-|--9----9-9--9-----9-x-x-|-12---12---12----12-12-12--|
|-----------------------|------------------------|-10---10---10----10-10-10--|


              ~~
    E   E  E  E  +S  S  E  E  E
|---5s==7-----------------------|
|----------7--7--(7)s5-----5--7-|
|-----------------------5-------|
|-------------------------------|
|-------------------------------|
|-------------------------------|
|
|   E   E  E  E  +Q        Q
|---------10-10-(10)------------|
|------------10-(10)------------|
|------11----10-(10)------------|
|------------10-(10)------------|
|--12---------------------------|
|-------------------------10\---|
|
|  +E   E  E  E  +E     E  E  E
|-------------------------------|
|-------------------------------|
|-(12)-12-12-11-(11)---11--x--x-|
|-(12)-12-12-12-(12)---12--x--x-|
|-(12)-12-12-12-(12)---12--x--x-|
|-(10)-10-10-10-(10)---10--x--x-|


   E E  E E +S  S  E E E   a a  E E  E E +E   E E E
|--5s7-------------------|-5-5--5--------------------|
|-------7-7-(7)s5----5-7-|--------7s=5s7-(7)----5-7--|
|------------------5-----|--------------------5------|
|------------------------|---------------------------|
|------------------------|---------------------------|
|------------------------|---------------------------|
|
|  E E  E E  E     E E E        E E  E E  E   E Q
|------------------------|---------------------------|
|------------------------|---------------------------|
|------------------------|---------------------------|
|------------------------|---------------------------|
|--x-2--x-x--2-----x-x-x-|------x-x--2-x--x---2-2S===|
|--x-2--x-x--2-----x-x-x-|------x-x--2-x--x---2-2S===|
|
|  q    E E  E     Q   E        q    E E  E   E E E
|------------------------|---------------------------|
|-10---10----9----10---9-|-----10---10----9--10-x-x--|
|-11---11----9----11---9-|-----11---11----9--11-x-x--|
|-11---11----9----11---9-|-----11---11----9--11-x-x--|
|--9----9-9--9-----9---9-|------9----9-9--9---9-x-x--|
|------------------------|---------------------------|


  a a  E E  E E +E   E  E  E
|-5-5--5---------------------|
|--------7s=5s7-(7)-----5--7-|
|--------------------5-------|
|----------------------------|
|----------------------------|
|----------------------------|
|
|      E E  e E  E   E  E  E
|----------------------------|
|----------------------------|
|----------------------------|
|----------------------------|
|------x-x-10-x--x--10----10h|
|------x-x-10-x--x--10-------|
|
|      Q    Q    E   E  E  E
|----------------------------|
|----------------------------|
|----------11---11--11-11-12-|
|----------12---12--12-12-12-|
|-----12---12---12--12-12-12-|
|-----10---10---10--10-10-10-|


  a a   E   E  E  E  +E   E  E  E   a a  E E  E E +Q.       E
|-5-5---5-------------------------|-5-5--5--------------------|
|-----------7s=5s=7--(7)-----5--7-|--------7s=5-7-(7)s=====14-|
|-------------------------5-------|---------------------------|
|---------------------------------|---------------------------|
|---------------------------------|---------------------------|
|---------------------------------|---------------------------|
|
|       E   E  E  E  +Q      Q           E E  E E  E   E E  E
|-------------10-10-(10)----------|---------------------------|
|----------------10-(10)----------|---------------------------|
|----------11----10-(10)----------|---------------------------|
|----------------10-(10)----------|---------------------------|
|------12-------------------------|--------x--2-x--x---2-x--x-|
|---------------------------10\---|--------x--2-x--x---2-x--x-|
|
|      +E   E  E  E  +E   E  E  E        q    E E  E   Q    E
|---------------------------------|---------------------------|
|---------------------------------|-----10---10----9--10----9-|
|-----(12)-12-12-11-(11)-11--x--x-|-----11---11----9--11----9-|
|-----(12)-12-12-12-(12)-12--x--x-|-----11---11----9--11----9-|
|-----(12)-12-12-12-(12)-12--x--x-|------9----9-9--9---9----9-|
|-----(10)-10-10-10-(10)-10--x--x-|---------------------------|


                                                           ~~~~~~~~~~~~~~~~~
   E  E  H         +E   S  S    E  E  E  E  E  E  E  E     H            +Q.         E
|-14s12-14--------(14)s12s14-|-14----14----14----12----|--10-----------(10)-----------|
|-14s12-14--------(14)s12s14-|----14----14----12----12-|--10-----------(10)--------10-|
|----------------------------|-------------------------|------------------------------|
|----------------------------|-------------------------|------------------------------|
|----------------------------|-------------------------|------------------------------|
|----------------------------|-------------------------|------------------------------|
|
|  E  E  e E E  E   Q           E  E  e  E  E  E  E  E     E   E  E  E  +Q      Q
|----------------------------|-------------------------|---------10-10-(10)-----------|
|----------------------------|-------------------------|------------10-(10)-----------|
|----------------------------|-------------------------|------11----10-(10)-----------|
|----------------------------|-------------------------|------------10-(10)-----------|
|--x--x--2-x-x--2---2S=======|==x--x-10--x--x-10----10h|==12--------------------------|
|--x--x--2-x-x--2---2S=======|==x--x-10--x--x-10-------|-----------------------10\----|
|
|  q     E E E  E   E   E       Q     Q     E  E  E  E    +E   E  E  E  +E   E  E   E
|----------------------------|-------------------------|------------------------------|
|-10----10---9-10---x---x----|-------------------------|------------------------------|
|-11----11---9-11---x---x----|-------11----11-11-11-12-|-(12)-12-12-11-(11)-11--x---x-|
|-11----11---9-11---x---x----|-------12----12-12-12-12-|-(12)-12-12-12-(12)-12--x---x-|
|--9-----9-9-9--9---x---x----|-12----12----12-12-12-12-|-(12)-12-12-12-(12)-12--x---x-|
|----------------------------|-10----10----10-10-10-10-|-(10)-10-10-10-(10)-10--x---x-|


                                   ~~~~~~~~~
   E  E  E  E  E  E  E  E    E  E  Q    +Q.       a  E    +Q     E  E  H
|-10----10----12----12----|-14s12-14---(14)------14s17-|-(17)---16s17----------------*|
|----10----10----12----14-|-14s12-14---(14)------------|-----------------------------*|
|-------------------------|----------------------------|-----------------------------*|
|-------------------------|----------------------------|-----------------------------*|
|-------------------------|----------------------------|-----------------------------*|
|-------------------------|----------------------------|-----------------------------*|
|
|  E  E  E  E  E  E  E  E    E  E  e E   E   E Q           E  E  e  E  E  E  E  E
|-------------------------|----------------------------|-----------------------------*|
|-------------------------|----------------------------|-----------------------------*|
|-------------------------|----------------------------|-----------------------------*|
|-------------------------|----------------------------|-----------------------------*|
|-----x--2--x--x--2--x--x-|--x--x--2-x---x---2-2S======|===x--x-10--x--x-10----10----*|
|-----x--2--x--x--2--x--x-|--x--x--2-x---x---2-2S======|===x--x-10--x--x-10----------*|
|
|  q     E  E  E  Q     E    q     E E   E   E E     E     Q     Q     E  E  E  E
|-------------------------|----------------------------|-----------------------------*|
|-10----10-----9-10-----9-|-10----10-----9--10-x-----x-|-----------------------------*|
|-11----11-----9-11-----9-|-11----11-----9--11-x-----x-|--------11----11-11-11-12----*|
|-11----11-----9-11-----9-|-11----11-----9--11-x-----x-|--------12----12-12-12-12----*|
|--9-----9--9--9--9-----9-|--9-----9-9---9---9-x-----x-|--12----12----12-12-12-12----*|
|-------------------------|----------------------------|--10----10----10-10-10-10----*|


Duration Legend
---------------
W - whole; H - half; Q - quarter; E - 8th; S - 16th; T - 32nd; X - 64th; a - acciaccatura
+ - note tied to previous; . - note dotted; .. - note double dotted
Uncapitalized letters represent notes that are staccato (1/2 duration)
Irregular groupings are notated above the duration line
Duration letters will always appear directly above the note/fret number it represents the
duration for.  Duration letters with no fret number below them represent rests.  Multi-
bar rests are notated in the form Wxn, where n is the number of bars to rest for.  Low
melody durations appear below the staff

Tablature Legend
----------------
 h   - hammer-on
 p   - pull-off
 b   - bend
 pb  - pre-bend
 r   - bend release (if no number after the r, then release immediately)
 /\  - slide into or out of (from/to "nowhere")
 s   - legato slide
 S   - shift slide
  - natural harmonic
[n]  - artificial harmonic
n(n) - tapped harmonic
 ~   - vibrato
 tr  - trill
 T   - tap
 TP  - trem. picking
 PM  - palm muting
\n/  - tremolo bar dip; n = amount to dip
 \n  - tremolo bar down
 n/  - tremolo bar up
/n\  - tremolo bar inverted dip
 =   - hold bend; also acts as connecting device for hammers/pulls
 <>  - volume swell (louder/softer)
 x   - on rhythm slash represents muted slash
 o   - on rhythm slash represents single note slash

Misc Legend
-----------
 |  - bar
||  - double bar
||o - repeat start
o|| - repeat end
*|  - double bar (ending)
 :  - bar (freetime)
 $  - Segno
 &  - Coda
Tempo markers -  = BPM(8/16=s8/s16), where s8 = swing 8ths, s16 = swing 16ths


Добавлено: 01.04.2012
Другие материалы по этой песне:

Страница создана 01.04.2012
http://primanota.ru/foghat/stone-blue-chords.htm
Привет, Гость.
Предлагаем пройти революционный курс по гитаре.
Подарок от PrimaNota.Ru, забирай!