PrimaNota.ru - самый крупный в мире бесплатный архив песенных текстов, аккордов, табулатур и нот


Foghat - Its Too Late - текст песни, таба, видео

Регистрация Запомнить меня
Войти через:  Facebook Google Twitter Vk Yandex Mail.ru

Foghat - Its Too Late - текст песни, таба, видео

Печатать
Просмотров: 148
|----------------------------------------------------------------------|
                             It's Too Late by Foghat
|----------------------------------------------------------------------|
Tabbed by:Ross               Music by- Rod Price/Lonesome Dave Peverett
Email:jcramson@gmail.com               Knee Trembler Music-ASCAP
Tuning:standard



  [intro]                                D

e|----5h7---7p5-|--5--2--2---2p0--0-|----2------|--------------------|
B|----5h7---7p5-|--5--2--2---2p0--0-|----3------|--3p2---------------|
G|--------------|-------------------|----2------|-------2------2-----|
D|--------------|-------------------|----2h4----|----------2h4---4---|
A|--------------|-------------------|----0------|--------------------|
E|--------------|-------------------|-----------|--------------------|



  [Verse]
        A     D               bm7          A
E|-------------|------------|--2------5------------------------------|
B|-----2--2--3-|--3---------|--3------3---2---2----------------------|
G|-----2--2--2-|--2-----2---|--2----------2---2------2---------------|
D|-----2--2--4-|--4-2h4---4-|--2--4-------2---2--2h4----4------------|
A|-----0-------|------------|--2----------0---0----------------------|
E|-------------|------------|----------------------------------------|

1.Since You've been gone        I been holdin on
2.I tried and tried     But the feelin died

        A     D

E|-------------------------|--2-----5----2--------------------------|
B|-----2--2--3----3--------|--3-------3--3--3-----------------------|
G|-----2--2--2----2-----2--|--2----------2----2---------------------|
D|-----2--2--4----4-2h4---4|--2--4-------2------4-------------------|
A|-----0-------------------|--2----------2--------------------------|
E|-------------------------|----------------------------------------|


 1. Behind my smile       Sadness grows

 2. The love we had   It turned to hate


       A             AM7         A7

e|---------------|-------------|--0--|
B|-----2---------|---1---------|--2--|
G|-----2---------|---0---------|--0--|(guitar 1 with guitar 2 below)
D|-----2---------|---2---------|--2--|
A|-----0---------|---0---------|--0--|
E|---------------|-------------|-----|

 1. I tried         to hide      The pain
 2. And now         your gone    for good

e|---------5----|-----4---|------3---|
B|--------------|---------|----------|
G|---6--------6-|-6-----6-|-6------6-|(guitar 2 with guitar 1 above)
D|------7-------|---6-----|----5-----|
A|--------------|---------|----------|
E|--------------|---------|----------|

     A7                   D                       F                 G

e|--0-0---0-0-0----|-----------2---|------------|---------|-------|--------|
B|--2-2---2-2-2----|------3--------|-------3----|-----1---|-----1-|-----3--|
G|--0-0---0-0-0----|------2--2---2-|----2-----2-|---2---2-|---2---|---4---4|
D|--2-2---2-2-2----|------0--------|-4----------|-3-------|-3-----|-5------|
A|--0-0---0-0-0----|---------------|------------|---------|-------|--------|
E|-----------------|---------------|------------|---------|-------|--------|

 1. The pain i feel inside           But it shows
 2.I keep on sayin   baby            It's too late


 Chorus

     A                          D
e|---------------------------|----------------------------|
B|--------2--------------2---|------2------3p2------------|
G|-----2----2---------2----2-|---3----2---------2------2--|
D|--2--------------2---------|-4-------------------2h4---4|
A|---------------------------|----------------------------|
E|---------------------------|----------------------------|

   It's too late to change your mind

     A                          D
e|---------------------------|----------------------------|
B|--------2--------------2---|------2------3p2------------|
G|-----2----2---------2----2-|---3----2---------2------2--|
D|--2--------------2---------|-4-------------------2h4---4|
A|---------------------------|----------------------------|
E|---------------------------|----------------------------|

   We can't turn back the hands of time


      A                         D   A    D
e|---------------------------|--------------|
B|--------2-------------2----|--3--2----3^3-|
G|-----2----2--------2-----2-|--2--2----2^2-|
D|--2-------------2----------|--4--2----4^4-|
A|---------------------------|--------------|
E|---------------------------|--------------|
  It's too late to change your mind


 (Then Verse 2.Then chorus below)


Chorus

     A                          D
e|---------------------------|----------------------------|
B|--------2--------------2---|------2------3p2------------|
G|-----2----2---------2----2-|---3----2---------2------2--|
D|--2--------------2---------|-4-------------------2h4---4|
A|---------------------------|----------------------------|
E|---------------------------|----------------------------|

   It's too late to change your mind

     A                           D
e|---------------------------|----------------------------|
B|--------2--------------2---|------2------3p2------------|
G|-----2----2---------2----2-|---3----2---------2------2--|
D|--2--------------2---------|-4-------------------2h4---4|
A|---------------------------|----------------------------|
E|---------------------------|----------------------------|

   We can't turn back the hands of time

      A                         D   A    D
e|---------------------------|--------------|
B|--------2-------------2----|--3--2----3^3-|
G|-----2----2--------2-----2-|--2--2----2^2-|
D|--2-------------2----------|--4--2----4^4-|
A|---------------------------|--------------|
E|---------------------------|--------------|
  It's too late to change your mind


                Bridge
  Bass Fill            bm7       c#7      f#m7       A
E|-------------|----2----2-2----4---4-4-|--5---4-4---0^0|
B|-------------|----3----3-3----5---5-5-|--7---5-5---2^2|
G|-------------|----2----2-2----4---4-4-|--6---4-4---2^2|
d|-------------|----4----4-4----6---6-6-|--4---6-6---2^2|
A|--2--2---0---|----2----2-2----4---4-4-|------------0^0|
E|------------2|------------------------|---------------|

               I have the strength to stand alone


     bm7             c#m7       @  D          F         F      G
                               guitar 1 played with below
E|--2--2--2-2-------4--4-4-4-|--2--2-2-2-|--1-1-1-1-|-1-1-s--3-3-|
B|--3--3--3-3-------5--5-5-5-|--3--3-3-3-|--1-1-1-1-|-1-1-s--3-3-|
G|--2--2--2-2-------4--4-4-4-|--2--2-2-2-|--2-2-2-2-|-2-2-s--4-4-|
d|--4--4--4-4-------6--6-6-6-|--0--0-0-0-|--3-3-3-3-|-3-3-s--5-5-|
A|--2--2--2-2-------4----4-4-|-----------|----------|------------|
E|---------------------------|-----------|-----------------------|

   If I were strong enough to break your heart of stone

    @     D                       F        F        G
    guitar 2 played with guitar 2 above
E|-----------2---|------------|---------|-------|--------|
B|------3--------|-------3----|-----1---|-----1-|-----3--|
G|------2--2---2-|----2-----2-|---2---2-|---2---|---4---4|
D|------0--------|-4----------|-3-------|-3-----|-5------|
A|---------------|------------|---------|-------|--------|
E|---------------|------------|---------|-------|--------|


Chorus

     A                          D
e|---------------------------|----------------------------|
B|--------2--------------2---|------2------3p2------------|
G|-----2----2---------2----2-|---3----2---------2------2--|
D|--2--------------2---------|-4-------------------2h4---4|
A|---------------------------|----------------------------|
E|---------------------------|----------------------------|

   It's too late to change your mind


     A                          D
e|---------------------------|----------------------------|
B|--------2--------------2---|------2------3p2------------|
G|-----2----2---------2----2-|---3----2---------2------2--|
D|--2--------------2---------|-4-------------------2h4---4|
A|---------------------------|----------------------------|
E|---------------------------|----------------------------|

    We can't turn back the hands of time


      A                         D A/C# bm7
e|---------------------------|--------------|---------------|
B|--------2-------------2----|--3--2----3^3-|--3--2----3^3--|
G|-----2----2--------2-----2-|--2--2----2^2-|--2--2----2^2--|
D|--2-------------2----------|--4--2----4^4-|--4--2----4^4--|
A|---------------------------|--------------|---------------|
E|---------------------------|--------------|---------------|
  It's too late to change your mind     Yeah!!


   Guitar Solo 1.

     A        D                                    A                  D

    bend up 1 step
E|--12b--12--12b--|-------------------------------------|---12b--12--12b-|
B|----------------|----------10---12b--12--12b--12--10~-|----------------|
G|----------------|---9--11-----------------------------|----------------|
d|----------------|-------------------------------------|----------------|
A|----------------|-------------------------------------|----------------|
E|----------------|-------------------------------------|----------------|


                             bm7
E|--14----------------|---------------------------------------|
B|-------------10--12-|--12b-12101210--12h14-14--14-14--------|
G|------9--11---------|---------------------------------------|
D|--------------------|---------------------------------------|
A|--------------------|---------------------------------------|
E|--------------------|---------------------------------------|

                            A

E|-----------9-12-9------------|---17-17-17---17--14-9--10-10-12-12-10---|
B|-12-10-12----------12-14----|------------------------------------------|
G|-------------------------14~-|-----------------------------------------|
d|-----------------------------|-----------------------------------------|
A|-----------------------------|-----------------------------------------|
E|-----------------------------|-----------------------------------------|


      bm7

E|--10-10-9-10--10-9-|--10-12-10-9-10-9--5~-|
B|-------------------|----------------------|
G|-------------------|----------------------|
D|-------------------|----------------------|
A|-------------------|----------------------|
E|-------------------|----------------------|



      bm7       c#7       f#m7       A
E|--2----2-2----4---4-4-|--5---4-4---0^0|
B|--3----3-3----5---5-5-|--7---5-5---2^2|
G|--2----2-2----4---4-4-|--6---4-4---2^2|
d|--4----4-4----6---6-6-|--4---6-6---2^2|
A|--2----2-2----4---4-4-|------------0^0|
E|--------------------------------------|

               I have the strength to stand alone




     bm7             c#m7       @  D          F         F      G
                               guitar 1 with guitar 2 below
E|--2--2--2-2-------4--4-4-4-|--2--2-2-2-|--1-1-1-1-|-1-1-s--3-3-|
B|--3--3--3-3-------5--5-5-5-|--3--3-3-3-|--1-1-1-1-|-1-1-s--3-3-|
G|--2--2--2-2-------4--4-4-4-|--2--2-2-2-|--2-2-2-2-|-2-2-s--4-4-|
d|--4--4--4-4-------6--6-6-6-|--0--0-0-0-|--3-3-3-3-|-3-3-s--5-5-|
A|--2--2--2-2-------4----4-4-|-----------|----------|------------|
E|---------------------------|-----------|-----------------------|

   If I were strong enough to break your heart of stone


  @     D                       F        F        G
      guitar 2 with guitar 1 above
E|-----------2---|------------|---------|-------|--------|
B|------3--------|-------3----|-----1---|-----1-|-----3--|
G|------2--2---2-|----2-----2-|---2---2-|---2---|---4---4|
D|------0--------|-4----------|-3-------|-3-----|-5------|
A|---------------|------------|---------|-------|--------|
E|---------------|------------|---------|-------|--------|



E|--------------------------------------------------|
B|--------2----------2------------3-----3-----------|
G|-----2----2-----2-----2------2----2-----2----2----|
d|--2----------2------------4---------------4-------|
A|--------------------------------------------------|
E---------------------------------------------------|

   It's too late to change your mind

E|--------------------------------------------------|
B|--------2----------2------------3-----3-----------|
G|-----2----2-----2-----2------2----2-----2----2----|
d|--2----------2------------4---------------4-------|
A|--------------------------------------------------|
E---------------------------------------------------|

  We can't turn back the hands of time





E|-------9---------9----|------9----------9----|
B|----10---10---10---10-|---10---10---10----10-|
G|--9---------9---------|-9---------9----------|
d|----------------------|----------------------|
A|----------------------|----------------------|
E|---------------------------------------------|

  It's too late to change your mind

E|--------10----------10---|-------10----------10----|
B|-----10----10----10----10|----10----10----10----10-|
G|--11----------11---------|-11----------11----------|
d|-------------------------|-------------------------|
A|-------------------------|-------------------------|
E|-------------------------|-------------------------|


E|-------9---------9----|------9----------9----|
B|----10---10---10---10-|---10---10---10----10-|
G|--9---------9---------|-9---------9----------|
d|----------------------|----------------------|
A|----------------------|----------------------|
E|---------------------------------------------|

  We can't turn back the hands of time

E|--------10----------10---|-------10----------10----|
B|-----10----10----10----10|----10----10----10----10-|
G|--11----------11---------|-11----------11----------|
d|-------------------------|-------------------------|
A|-------------------------|-------------------------|
E|-------------------------|-------------------------|


      A  A  A  A  A          A  A  A  A  A
                                                 (A)
E|-------9---------9----|------9----------9----------|
B|----10---10---10---10-|---10---10---10----10-| -2--|
G|--9---------9---------|-9---------9----------| -2--|
d|----------------------|----------------------| -2--|
A|----------------------|----------------------| -0--|
E|---------------------------------------------------|
  It's too late

      D  D  D  D  D             D  D  D  D  D
                                                       (D)
E|--------10----------10---|-------10----------10----------|
B|-----10----10----10----10|----10----10----10----10-| -3--|
G|--11----------11---------|-11----------11----------| -2--|
d|-------------------------|-------------------------| -4--|
A|-------------------------|-------------------------| -0--|
E|-------------------------|-------------------------------|
   It's too late

      A  A  A  A  A          A  A  A  A  A

E|-------9---------9----|------9----------9----|
B|----10---10---10---10-|---10---10---10----10-|
G|--9---------9---------|-9---------9----------|
d|----------------------|----------------------|
A|----------------------|----------------------|
E|---------------------------------------------|
   It's too late

      D  D  D  D  D             D  D  D  D  D

E|--------10----------10---|-------10----------10----|
B|-----10----10----10----10|----10----10----10----10-|
G|--11----------11---------|-11----------11----------|
d|-------------------------|-------------------------|
A|-------------------------|-------------------------|
E|-------------------------|-------------------------|

   It's too late                      We can.t turn back

     A  A  A  A  A          A  A  A  A  A
E|-------9---------9----|------9----------9----|
B|----10---10---10---10-|---10---10---10----10-|
G|--9---------9---------|-9---------9----------|
d|----------------------|----------------------|
A|----------------------|----------------------|
E|---------------------------------------------|

                                      We can't turn back

      D  D  D  D  D             D  D  D  D  D
E|--------10----------10---|-------10----------10----|
B|-----10----10----10----10|----10----10----10----10-|
G|--11----------11---------|-11----------11----------|
d|-------------------------|-------------------------|
A|-------------------------|-------------------------|
E|-------------------------|-------------------------|
                                      We can't turn back

     A  A  A  A  A          A  A  A  A  A
E|-------9---------9----|------9----------9----|
B|----10---10---10---10-|---10---10---10----10-|
G|--9---------9---------|-9---------9----------|
d|----------------------|----------------------|
A|----------------------|----------------------|
E|---------------------------------------------|

                             We can't turn back

      D  D  D  D  D             D  D  D  D  D
E|--------10----------10---|-------10----------10----|
B|-----10----10----10----10|----10----10----10----10-|
G|--11----------11---------|-11----------11----------|
d|-------------------------|-------------------------|
A|-------------------------|-------------------------|
E|-------------------------|-------------------------|

                               Cause its too late


  Guitar solo

      A                           D

E|---------------------------|----------------------------------|
B|-------------------2-5-2---|----------------------------------|
G|-------------2--4--------4-|--2~---2-----2---------2--4--2----|
d|--2~---2--4----------------|----------4----4--2--4----------4-|
A|---------------------------|----------------------------------|
E|---------------------------|----------------------------------|


       A                              D

E|--------------------5----------|------------------------|
B|-----------------2-------------|--2h3~--3~----2h3-3-3-3-|
G|-----------2--4--------4-2-4-2-|------------------------|
d|--2~--2--4---------------------|------------------------|
A|-------------------------------|------------------------|
E|-------------------------------|------------------------|


E|---------------|--------5---------|-------------------|
B|---------------|-----2------------|-------------------|
G|--2-2----2-2---|-2-4------4-2-4-2-|-2-2----2-2----2---|
d|------4------4-|------------------|-----4------4----4-|
A|---------------|------------------|-------------------|
E|---------------|------------------|-------------------|


E|--------------|------------------|------------------|
B|------------2-|--5-2---3---2-5-2-|---3---2-5-2---3--|
G|-----2--4-4---|------4---4-------|-4---4-------4----|
d|-2-4----------|------------------|------------------|
A|--------------|------------------|------------------|
E|--------------|------------------|------------------|



E|----------------------------|-------------------------|
B|------------------3-3-3-10~-|--------10-10-10----10-12|
G|-4-2-4-2--2---2-------------|---9-11----------11------|
d|------------4---------------|-------------------------|
A|----------------------------|-------------------------|
E|----------------------------|-------------------------|

                            It's too late


E|-9-------------9-|-10b10b-------------|--------------------|
B|---12-10-12-10---|-------12~-10-10----|-10-12---12-10-12-10|
G|-----------------|----------------11--|--------------------|
d|-----------------|--------------------|--------------------|
A|-----------------|--------------------|--------------------|
E|-----------------|--------------------|--------------------|

                                                     It's too late



E|---------------|----------1010-9-|-------14-14|
B|-10--10-10--10-|-10--10-12-------|-12-12------|
G|---11-----11---|---11------------|------------|
d|---------------|-----------------|------------|
A|---------------|-----------------|------------|
E|---------------|-----------------|------------|



E|-12-14-12-14-14-14|--9---9---9------|-----------------------|
B|------------------|----12--12--12---|-----------------------|
G|------------------|---------------11|-11-9----9-------------|
d|------------------|-----------------|------11---11-9----9---|
A|------------------|-----------------|----------------12---12|
E|------------------|-----------------|-----------------------|

                We can't turn back




                                       Pinch Harmonic,Octave
                                       Bend 1/2 Step

E|------------------------|----------9----10-|--9-10-9-10-9-10-9-10|
B|---------------------10-|----10-12---12----|---------------------|
G|---------9----9-9-11----|-11---------------|---------------------|
d|------11---11-----------|------------------|---------------------|
A|-9-12-------------------|------------------|---------------------|
E|------------------------|------------------|---------------------|

                                           We can't turn back


                        Bend 1/2 Step

E|-9-10-9-10-9-10-9-10-|-12--12-|-12-10-9-10-12-|--9-9-9-|
B|---------------------|--------|---------------|--------|
G|---------------------|--------|---------------|--------|
d|---------------------|--------|---------------|--------|
A|---------------------|--------|---------------|--------|
E|---------------------|--------|---------------|--------|

                                                   It's too late




E|--9-9-9--9-------|-----9-------|-------------9-12-9----|-9-9-9-|
B|-----------12-10-|-12-------10-|-10----10-12--------12-|-------|
G|-----------------|-------11----|----12-----------------|-------|
d|-----------------|-------------|-----------------------|-------|
A|-----------------|-------------|-----------------------|-------|
E|-----------------|-------------|-----------------------|-------|

                                                     It's too late Yeah


E|-9-9-9--9------------9--------|-------------------------|
B|----------12-10--12--------10-|-10----10----10----10----|
G|------------------------11----|----11----11----11----11-|
d|------------------------------|-------------------------|
A|------------------------------|-------------------------|
E|------------------------------|-------------------------|

                                                  We can't turn back



                             D A/C#     bm7     D A/C#  bm7

E|-9-9-9-|-9-9-9--9--------|-10-10---9------|--14-12---10|--9-10-9-|
B|-------|-----------12-10-|------------10~-|------------|---------|
G|-------|-----------------|----------------|------------|---------|
d|-------|-----------------|----------------|------------|---------|
A|-------|-----------------|----------------|------------|---------|
E|-------|-----------------|----------------|------------|---------|


    A                                          D

E|--------17-17-17-|--17-14------------------|---|
B|-10~-------------|--------14\15-15\17-17/15|-15|
G|-----------------|-------------------------|---|
d|-----------------|-------------------------|---|
A|-----------------|-------------------------|---|
E|-----------------|-------------------------|---|


     (Enjoy)


************************************
   ^  Hold
| /   slide up
| \   slide down
| h   hammer-on
| p   pull-off
| ~   vibrato
| +   harmonic
| x   Mute note
| b   Bend
| pb  Pre-bend
| br  Bend release
| pbr Pre-bend release
| brb Bend release bend

************************************
Добавлено: 01.03.2012
Другие материалы по этой песне:
  • Аккорды и текст

Страница создана 01.03.2012
http://primanota.ru/foghat/its-too-late-chords.htm
Привет, Гость.
Предлагаем пройти революционный курс по гитаре.
Подарок от PrimaNota.Ru, забирай!