PrimaNota.ru - самый крупный в мире бесплатный архив песенных текстов, аккордов, табулатур и нот


Foghat - Home In My Hand - текст песни, таба, видео

Регистрация Запомнить меня
Войти через:  Facebook Google Twitter Vk Yandex Mail.ru

Foghat - Home In My Hand - текст песни, таба, видео

Печатать
Просмотров: 136
As recorded by Foghat
                        (From the 1977 Album FOGHAT LIVE)

Words and Music by Lonesome Dave Peverett and Roderick Price
Transcribed by Tone Jone's

Gtr I (E B E G# B E) - 'Gtr.1 Dist Gtr. Open E Tuning'
Gtr II (E A D G B E) - 'Gtr.2 Dist Gtr '

 Intro w/Drum's
  Moderately Fast  Q=135
 4/4
  Gtr I
  Wx5          H.      E E   +Q   Q   H
|------------|-------------|---------------|
|------------|-------------|---------------|
|------------|-------------|---------------|
|------------|-8-------0-6-|-(6)--6\-------|
|------------|-8-------0-6-|-(6)--6\-------|
|------------|-8-------0-6-|-(6)--6\-------|


   E  E E  Q  E  E E   E E  E E H
|--------------------|---------------|
|--------------------|---------------|
|--9--9----9-----9-8-|------9--------|
|--8--8----8-----8-8-|-8-8--8--------|
|-10-10---10----10-8-|-8-8-10--------|
|--8--8----8-----8-8-|-8-8--8--------|


                          ~~
  H.      E E   +E. +S    H    E E    E  E E  E E  E E E   H.      Q
|-------------|--------------------|---------------------|------------|
|-------------|--------------------|---------------------|------------|
|-------------|--------------------|--9--9----9----9-----|------------|
|-8-------0-6-|-(6)-(6)/-20--------|--8--8----8----8---8-|-8----------|
|-8-------0-6-|-(6)-(6)/-20----0---|-10-10---10---10---8-|-8----------|
|-8-------0-6-|-(6)-(6)/-20------8-|--8--8----8----8---8-|-8----------|


  H.             E  E     H.      +E  E    E  E E  E E  E E  E    +W
|---------------------|-----------------|----------------------|---------||
|---------------------|-----------------|----------------------|---------||
|---------------------|-----------------|--9--9----9----9------|---------||
|-8--------------0--6-|---6-------(6)---|--8--8----8----8----8-|--(8)----||
|-8--------------0--6-|---6-------(6)---|-10-10---10---10----8-|--(8)----||
|-8--------------0--6-|---6-------(6)s8-|--8--8----8----8----8-|--(8)----||
|
| Gtr II
|                   ~~~~~~~~~
| Q.    E  E  E  E  E    +H.       Q       E  E E  E E  E E  E    +W
|---------------------|-----------------|----------------------|---------||
|---------------------|-----------------|----------------------|---------||
|---------------------|-----------------|----------------------|---------||
|------------------10-|-(10)-------x----|----------------------|---------||
|------------10-12----|------------x----|--8p=7----8p7----0-10-|-(10)----||
|-8----10s12----------|-----------------|-------8-------8----8-|--(8)----||


 Verse
   Q   E E E E  E E   +E  E  E E E E  E E
|-------------------|---------------------|
|-------------------|---------------------|
|------9--------9---|--------9--------9---|
|--8---8---x-8--8-8-|-(8)-8--8---x-8--8-8s|
|--8--10---x-8-10-8-|-(8)-8-10---x-8-10-8s|
|--8---8-----8--8-8-|-(8)-8--8-----8--8-8s|
|
|  Q   Q   H           W
|-------------------|---------------------|
|-------------------|---------------------|
|-------------------|---------------------|
|-------------------|---------------------|
|-10----------------|---------------------|
|--8----------------|---------------------|


   Q   E  E E  E  E  E    +E   E  E E E  E E E
|----------------------|------------------------|
|----------------------|-------------------0----|
|-----16---------16----|---------16---x-16------|
|-15--15----x-15-15-15-|-(15)-15-15---x-15---6--|
|-15--17----x-15-17-15-|-(15)-15-17-----17---6--|
|-15--15------15-15-15-|-(15)-15-15-----15---6--|
|
|  W                       W
|----------------------|------------------------|
|----------------------|------------------------|
|----------------------|------------------------|
|----------------------|------------------------|
|----------------------|------------------------|
|----------------------|------------------------|


  Gtr I
  +Q   E E E E E  E    +Q    E E E  E E E
|-------------------|---------------------|
|-------------------|---------------------|
|-----------------9-|--(9)---9---x--9-----|
|-(6)--6---x-6s8--8-|--(8)---8---x--8---8-|
|-(6)--6---x-6s8-10-|-(10)--10-----10---8-|
|-(6)--6-----6s8--8-|--(8)---8------8---8-|


  +H     +E   E E  E   E E Q  +E   E E E
|--------------------|-------------------||
|--------------------|-------------------||
|-------------9----9-|-------------------||
|-(8)----(8)--8----8-|---8-8--(8)\---x-x-||
|-(8)----(8)-10---10-|---8-8--(8)\---x-x-||
|-(8)----(8)--8----8-|---8-8--(8)\-------||


 Verse
  Q   E E E E  E E   +E  E  E E E E  E E
|------------------|---------------------|
|------------------|---------------------|
|-----9--------9---|--------9--------9---|
|-8---8---x-8--8-8-|-(8)-8--8---x-8--8-8s|
|-8--10---x-8-10-8-|-(8)-8-10---x-8-10-8s|
|-8---8-----8--8-8-|-(8)-8--8-----8--8-8s|


   Q   E  E E  E  E  E    +E   E  E E E  E E E
|----------------------|------------------------|
|----------------------|-------------------0----|
|-----16---------16----|---------16---x-16------|
|-15--15----x-15-15-15-|-(15)-15-15---x-15---6--|
|-15--17----x-15-17-15-|-(15)-15-17-----17---6--|
|-15--15------15-15-15-|-(15)-15-15-----15---6--|


  Q  E E E E E  E    +Q    E E E  E E E   +H     +E   E E  E
|-----------------|---------------------|--------------------|
|-----------------|---------------------|--------------------|
|---------------9-|--(9)---9---x--9-----|-------------9----9-|
|-6--6---x-6s8--8-|--(8)---8---x--8---8-|-(8)----(8)--8----8-|
|-6--6---x-6s8-10-|-(10)--10-----10---8-|-(8)----(8)-10---10-|
|-6--6-----6s8--8-|--(8)---8------8---8-|-(8)----(8)--8----8-|


                   Chorus
                 $  $$
  Gtr I
  E E E E H          E  E  E  E  E  E  E  E
|----------------||-------------------------|
|----------------||-------------------------|
|----------------||--------9-----------9----|
|---8-8----------||--8--8--8--8--8--8--8--8-|
|---8-8----------||--8--8-10--8--8--8-10--8-|
|---8-8----------||--8--8--8--8--8--8--8--8-|
|
| Gtr II
| H       Q  E E     E  E  E  E  E  E  E  E
|----------------||-------------------------|
|----------------||-------------------------|
|----------------||-------------------------|
|----------------||-------------------------|
|----------------||-10-10-12-10-10-10-12-10-|
|--------------0-||--8--8--8--8--8--8--8--8-|


   E  E  E  E  E  E  E  E    E  E  E  E  E  E  E  E
|-------------------------|-------------------------|
|-------------------------|-------------------------|
|--------9-----------9----|-------11----------11----|
|--8--8--8--8--8--8--8--8-|-10-10-10-10-10-10-10-10-|
|--8--8-10--8--8--8-10--8-|-10-10-12-10-10-10-12-10-|
|--8--8--8--8--8--8--8--8-|-10-10-10-10-10-10-10-10-|
|
|  E  E  E  E  E  E  E  E    E  E  E  E  E  E  E  E
|-------------------------|-------------------------|
|-------------------------|-------------------------|
|-------------------------|-------------------------|
|-------------------------|-------------------------|
|-10-10-12-10-10-10-12-10-|-12-12-14-12-12-12-14-12-|
|--8--8--8--8--8--8--8--8-|-10-10-10-10-10-10-10-10-|


                                                              To Dbl. To Coda
   E  E  E  E  E  E  E  E    E  E  E  E  E  E  E  E    +E   E  E  E  E  E  E E
|-------------------------|-------------------------|--------------------------|
|-------------------------|-------------------------|--------------------------|
|-------11----------11----|-------14----------14----|---------16----------16---|
|-10-10-10-10-10-10-10-13-|-13-13-13-13-13-13-13-15-|-(15)-15-15-15-15-15-15---|
|-10-10-12-10-10-10-12-13-|-13-13-15-13-13-13-15-15-|-(15)-15-17-15-15-15-17-0-|
|-10-10-10-10-10-10-10-13-|-13-13-13-13-13-13-13-15-|-(15)-15-15-15-15-15-15-0-|
|
|  E  E  E  E  E  E  E  E    E  E  E  E  E  E  E  E    +E   E  E  E  E  E  E E
|-------------------------|-------------------------|--------------------------|
|-------------------------|-------------------------|--------------------------|
|-------------------------|-------------------------|--------------------------|
|----------------------10-|-10-10-10-10-10-10-10-12-|-(12)-12-14-12-12-12------|
|-12-12-14-12-12-12-12--8-|--8--8--8--8--8--8--8-10-|-(10)-10-10-10-10-10--0-0-|
|-10-10-10-10-10-10-10----|-------------------------|----------------------0-0-|


  H.             E  E    +H.       E E    E  E E  E E  E E  E    +W
|---------------------|----------------|----------------------|---------||
|---------------------|----------------|----------------------|---------||
|---------------------|----------------|--9--9----9----9------|---------||
|-8--------------0--6-|--(6)------(6)--|--8--8----8----8----8-|--(8)----||
|-8--------------0--6-|--(6)------(6)--|-10-10---10---10----8-|--(8)----||
|-8--------------0--6-|--(6)-------6s8-|--8--8----8----8----8-|--(8)----||
|
|                   ~~~~~~~~~
| Q.    E  E  E  E  E    +H.       Q      E  E E  E E  E E  E    +W
|---------------------|----------------|----------------------|---------||
|---------------------|----------------|----------------------|---------||
|---------------------|----------------|----------------------|---------||
|------------------10-|-(10)-----------|----------------------|---------||
|------------10-12----|------------0---|--8p=7----8p7----0-10-|-(10)----||
|-8----10s12----------|----------------|-------8-------8----8-|--(8)----||


 Verse
   Q   E E E E  E E   +E  E  E E E E  E E
|-------------------|---------------------|
|-------------------|---------------------|
|------9--------9---|--------9--------9---|
|--8---8---x-8--8-8-|-(8)-8--8---x-8--8-8-|
|--8--10---x-8-10-8-|-(8)-8-10---x-8-10-8-|
|--8---8-----8--8-8-|-(8)-8--8-----8--8-8s|
|
|  Q   Q   H           W
|-------------------|---------------------|
|-------------------|---------------------|
|-------------------|---------------------|
|-------------------|---------------------|
|-10----------------|---------------------|
|--8----------------|---------------------|


                                 ~~
   Q   E E E  E  E  E    +E   E  H     E  E
|---------------------|---------------------|
|---------------------|---------------------|
|-----16--------16----|---------------------|
|-----15---x-15-15-15-|-(15)-15s18----18\-0-|
|-----17---x-15-17-15-|-(15)-15s18----18\-0-|
|-15--15-----15-15-15-|-(15)-15s18----18\-0-|
|
|  W                      W
|---------------------|---------------------|
|---------------------|---------------------|
|---------------------|---------------------|
|---------------------|---------------------|
|---------------------|---------------------|
|---------------------|---------------------|


                                                               D.S. al Coda
  Gtr I
  Q  E E E E E  E    +Q    E E E  E E E   +H     +E   E E  E   E E E E H
|-----------------|---------------------|--------------------|--------------||
|-----------------|---------------------|--------------------|--------------||
|---------------9-|--(9)---9---x--9-----|-------------9----9-|--------------||
|-6--6---x-6S8--8-|--(8)---8---x--8---8-|-(8)----(8)--8----8-|---8-8--------||
|-6--6---x-6S8-10-|-(10)--10-----10---8-|-(8)----(8)-10---10-|---8-8--------||
|-6--6-----6S8--8-|--(8)---8------8---8-|-(8)----(8)--8----8-|---8-8--------||


  &
  Gtr I
  H        E  E  E  E     E   Q.    +Q   Q
|---------------------|----------------------||
|---------------------|----------------------||
|---------------------|---9---9-----(9)------||
|-8--------8--6-----8-|---8---8-----(8)------||
|-8--------8--6-----8-|--10--10----(10)------||
|-8--------8--6-----8-|---8---8-----(8)------||
|
| Gtr II
|                   ~~~~~~~~~
| Q.    E  E  E  E  E    +H.             E E
|---------------------|----------------------||
|---------------------|----------------------||
|---------------------|----------------------||
|------------------10-|-(10)-------------0-0-||
|------------10-12----|------------------0-0-||
|-8----10s12----------|----------------------||


 Guitar Solo
            ~~                                                ~~~~~
   S  S  E  H           a  E  E    Q     S  E     S  E  a  E  E  E
|-------------------------------|-----------------------------------|
|-11s16-13-13----------11s13-13-|-16S===18-18----19-20-18s15-13-13--|
|-------------------------------|-----------------------------------|
|-------------------------------|-----------------------------------|
|-------------------------------|-----------------------------------|
|-------------------------------|-----------------------------------|
|
|  E     E  E  E  E  E     E  E    E  E  E     E     E     E  E  E
|-------------------------------|-----------------------------------|
|-------------------------------|-----------------------------------|
|-------------------------------|-----------------------------------|
|-10----10-12-10-10-10----12-10-|-10-10-12----10----10----10--0-----|
|--8-----8--8--8--8--8-----8--8-|--8--8--8-----8-----8-----8--0-10--|
|-------------------------------|--------------------------------8--|


    ~~~~
   +Q      E  S  S  +S   S  E  S  E.
|--------------------------------------|
|-(13)----10s13-10-(10)s13-10s13-10s===|
|--------------------------------------|
|--------------------------------------|
|--------------------------------------|
|--------------------------------------|
|
|   E   E  E  E      E      E  E     E
|--------------------------------------|
|--------------------------------------|
|--------------------------------------|
|--------------------------------------|
|--10--10-12-10-----10-----10-12----10-|
|---8---8--8--8------8------8--8-----8-|


      ~~~~~~~                                      ~~
                       |--3---|
   E  E  +S   S  S  S  E E    E E E    Q.       E  Q     E  E
|-----------------------------------|-------------------------|
|-11---------11----10-10------9-----|-------------------------|
|----11-(11)----10-------9------8-7s|==6s=======8-------------|
|-----------------------------------|--------------8-----6--8-|
|-----------------------------------|-------------------------|
|-----------------------------------|-------------------------|
|
|  E  E   E      E     E    E   E E    E  E  E  E  E  E  E  E
|-----------------------------------|-------------------------|
|-----------------------------------|-------------------------|
|-----------------------------------|-------------------------|
|-----------------------------------|-10-10-12-10-10-10-12-13-|
|-10-10--12-----10----10---10---x-0-|--8--8--8--8--8--8--8--8-|
|--8--8---8------8-----8----8---x---|-------------------------|


                  ~~~~~~
  a   E   E a  E  E +Q      E E
|-------------------------------|
|---------8---------------------|
|-7s==8-----7s=8------------8-7s|
|-----------------8-(8)---------|
|-------------------------------|
|-------------------------------|
|
|    +E   E    E  E  E   E  E E
|-------------------------------|
|-------------------------------|
|-------------------------------|
|---(13)-13---12-10-10--10-12---|
|----(8)--8----8--8--8---8--8-0-|
|-------------------------------|


   E  E  E  E  S S  E  E  E     E   E  Q     Q     E  E
|---------------------------|----------------------------|
|----10-10-10-10s8----10----|------11-------------12-11s=|
|-10---------------10-----9s|==11------9s===11-----------|
|---------------------------|----------------------------|
|---------------------------|----------------------------|
|---------------------------|----------------------------|
|
|  E  E  E  E  E    E  E  E    +E   E  E  E  E  E  E  E
|---------------------------|----------------------------|
|---------------------------|----------------------------|
|---------------------------|----------------------------|
|------------------------12-|-(12)-12-14-12-12-12--0--0--|
|-12-12-14-12-12---14----10-|-(10)-10-10-10-10-10--0--0--|
|-10-10-10-10-10---10-10----|----------------------------|


      ~~~~~~~~~~~~~~~~~~~~               ~~~~~~~~~~~~~
   E  E  Q     Q     E  E    a  Q     E  E  +E   E  E  S  S
|----20-20----20----20-20-|-20s23-------20-(20)-20-20-20-20-|
|-20----------20----------|----------20---------------------|
|-------------------------|---------------------------------|
|-------------------------|---------------------------------|
|-------------------------|---------------------------------|
|-------------------------|---------------------------------|
|
|  E  E  E  E  E  E  E  E       E  E  E  E   E   E  E  E
|-------------------------|---------------------------------|
|-------------------------|---------------------------------|
|-------------------------|---------------------------------|
|-10-10-12-10-10-10-12-10-|----10-10-12-10--10--10--0-------|
|--8--8--8--8--8--8--8--8-|-----8--8--8--8---8---8--0-10----|
|-------------------------|----------------------------8----|


                                 ~~~~~~~~
   S  S  S  S  S  S  S  S  E  E  E  S  S
|-20s18-18-18-18s20-20-20-20-20-20-20-20-|
|----------------------------------------|
|----------------------------------------|
|----------------------------------------|
|----------------------------------------|
|----------------------------------------|
|
|  E     E     E     E     E  E  E  E
|----------------------------------------|
|----------------------------------------|
|----------------------------------------|
|----------------------------------------|
|-10----10----12----10----10-10-12-10----|
|--8-----8-----8-----8-----8--8--8--8----|


                      ~~
   S  S  E  E   S  S  Q     E  E
|--------------------------------|
|-20s18----20\-------------------|
|-------20-20\-18s20----------16-|
|--------------------20----------|
|--------------------------17----|
|--------------------------------|
|
|  E     E  E   E     E  E  E  E
|--------------------------------|
|--------------------------------|
|--------------------------------|
|--------------------------------|
|-10----10-12--10----10-10--x--0-|
|--8-----8--8---8-----8--8--x----|


                                                           ~~
   a  Q     a  Q     a  Q     a  Q        E   E  S  E.     Q     E  E
|-------------------------------------|--------------------------------|
|-16s17----16s18----16s18----16s18s===|==19s=20------------------------|
|-------------------------------------|---------20-----------------20s=|
|-------------------------------------|------------20-----20-----------|
|-------------------------------------|--------------------------------|
|-------------------------------------|--------------------------------|
|
|     E  E     E  E     E  E     E  E    +E   E  E      E  E  E  E  E
|-------------------------------------|--------------------------------|
|-------------------------------------|--------------------------------|
|-------------------------------------|--------------------------------|
|----10-10----12-10----10-10----12-13-|-(13)-13-12-----10-10-10-12-----|
|-----8--8-----8--8-----8--8-----8--8-|--(8)--8--8------8--8--8--8--0--|
|-------------------------------------|--------------------------------|


                                           ~~~~~~~~~~~~~~~~~~~~~~~~~~~~~~~~~~~
   E  E  a  E  E  a  E  E  S  S  E    +S   S  E  S  E     S  E  S  S  S  S  E
|----------------------------------|------------------------------------------|
|----22-------22-------22-------20-|-(20)-20-20-20-20----20-20-20-20-20-20-20-|
|-22----20s22----20s22----22s20----|------------------------------------------|
|----------------------------------|------------------------------------------|
|----------------------------------|------------------------------------------|
|----------------------------------|------------------------------------------|
|
|  E  E     E  E     E  E  E     E    +E      E  E     E     E  E     E     E
|----------------------------------|------------------------------------------|
|----------------------------------|------------------------------------------|
|----------------------------------|------------------------------------------|
|-------------------------------12-|-(12)----12-14----12----12-12-----0-----0-|
|-12-12----14-12----12-14-------10-|-(10)----10-10----10----10-10-----0-----0-|
|-10-10----10-10----10-10-10-------|------------------------------------------|


                                                              ~~~
   a  E  E  a  E  E  a  E  E  E  a  E    +E   Q.    +E.  S E  E
|-------------------------------------|----------------------20-|
|-------22-------22-------22----18s22-|-(22)s23----(23)s13------|
|-20s22----20s22----20s22----21-------|-------------------------|
|-------------------------------------|-------------------------|
|-------------------------------------|-------------------------|
|-------------------------------------|-------------------------|
|
|     E  E     E  E     E  E  E     E    +W
|-------------------------------------|-------------------------|
|-------------------------------------|-------------------------|
|-------------------------------------|-------------------------|
|----------------------------------12-|-(12)--------------------|
|----12-12----14-12----12-12-12----10-|-(10)--------------------|
|----10-10----10-10----10-10-10-------|-------------------------|


                    D.S.S. al Dbl. Coda
 ~~~~~~
                  |--3---|
   +Q    a  E E   S   S  S  S  S  Q
|-(20)--20s22-0--20---------------------||
|--------------------20s18-------20\----||
|--------------------------18s20--------||
|---------------------------------------||
|---------------------------------------||
|---------------------------------------||
|
|  +H            +Q.                 E
|---------------------------------------||
|---------------------------------------||
|---------------------------------------||
|-(12)----------(12)-----------------0--||
|-(10)----------(10)-----------------0--||
|---------------------------------------||


  &&
  Q.    E  E  E  E  E    +E   E  E  E  E  E  E E
|---------------------|--------------------------||
|---------------------|--------------------------||
|---------------------|-------9--9--9--9--9--9---||
|-8-----8--7--6-----8-|--(8)--8--8--8--8--8--8-8-||
|-8-----8--7--6-----8-|--(8)-10-10-10-10-10-10-8-||
|-8-----8--7--6s=8--8-|--(8)--8--8--8--8--8--8-8-||
|
|                   ~~~~~~~~~
| Q.    E  E  E  E  E    +H.                 E E
|---------------------|--------------------------||
|---------------------|--------------------------||
|---------------------|--------------------------||
|------------------10-|-(10)-----------------0-0-||
|------------10-12----|----------------------0-0-||
|-8----10s12----------|--------------------------||


 Chorus
  Gtr I
   E  E  E  E  E  E  E  E    E  E  E  E  E  E  E  E
|-------------------------|-------------------------|
|-------------------------|-------------------------|
|--------9-----------9----|--------9-----------9----|
|--8--8--8--8--8--8--8--8-|--8--8--8--8--8--8--8--8-|
|--8--8-10--8--8--8-10--8-|--8--8-10--8--8--8-10--8-|
|--8--8--8--8--8--8--8--8-|--8--8--8--8--8--8--8--8-|
|
| Gtr II
|  E  E  E  E  E  E  E  E    E  E  E  E  E  E  E  E
|-------------------------|-------------------------|
|-------------------------|-------------------------|
|-------------------------|-------------------------|
|-------------------------|-------------------------|
|-10-10-12-10-10-10-12-10-|-10-10-12-10-10-10-12-10-|
|--8--8--8--8--8--8--8--8-|--8--8--8--8--8--8--8--8-|


   E  E  E  E  E  E  E  E    E  E  E  E  E  E  E  E
|-------------------------|-------------------------|
|-------------------------|-------------------------|
|-------11----------11----|-------11----------11----|
|-10-10-10-10-10-10-10-10-|-10-10-10-10-10-10-10-13-|
|-10-10-12-10-10-10-12-10-|-10-10-12-10-10-10-12-13-|
|-10-10-10-10-10-10-10-10-|-10-10-10-10-10-10-10-13-|
|
|  E  E  E  E  E  E  E  E    E  E  E  E  E  E  E  E
|-------------------------|-------------------------|
|-------------------------|-------------------------|
|-------------------------|-------------------------|
|-------------------------|----------------------10-|
|-12-12-14-12-12-12-14-12-|-12-12-14-12-12-12-12--8-|
|-10-10-10-10-10-10-10-10-|-10-10-10-10-10-10-10----|


   E  E  E  E  E  E  E  E    +E   E  E  E  E  E  E E
|-------------------------|--------------------------|
|-------------------------|--------------------------|
|-------14----------14----|---------16----------16---|
|-13-13-13-13-13-13-13-15-|-(15)-15-15-15-15-15-15---|
|-13-13-15-13-13-13-15-15-|-(15)-15-17-15-15-15-17-0-|
|-13-13-13-13-13-13-13-15-|-(15)-15-15-15-15-15-15-0-|
|
|  E  E  E  E  E  E  E  E    +E   E  E  E  E  E  E E
|-------------------------|--------------------------|
|-------------------------|--------------------------|
|-------------------------|--------------------------|
|-10-10-10-10-10-10-10-12-|-(12)-12-14-12-12-12------|
|--8--8--8--8--8--8--8-10-|-(10)-10-10-10-10-10--0-0-|
|-------------------------|----------------------0-0-|


  E E  E E  E  E  E E   E E  E E  E  E  E   E
|---------------------|------------------------|
|---------------------|------------------------|
|------9----------9---|------9----------9------|
|-8-8--8-8--8--8--8-8-|-8-8--8-8--8--8--8---8--|
|-8-8-10-8--8--8-10-8-|-8-8-10-8--8--8-10---8--|
|-8-8--8-8--8--8--8-8-|-8-8--8-8--8--8--8---8--|
|
| E E  E E +Q     E E   E E  E E +Q     E   E
|-x-8----8-(8)--------|---8--x-8-(8)-----------|
|-x-8----8-(8)------8-|---8--x-8-(8)---<9>-----|
|----------------10-8h|=9----------------------|
|---------------------|--------------------<7>-|
|------0--------------|------------------------|
|---------------------|------------------------|


   E  E  E  E  E  E E  E    +E   E  E  E  E  E E E
|------------------------|-------------------------|
|------------------------|-------------------------|
|-------14---------------|---------16--------------|
|-13-13-13-13-13-13---15-|-(15)-15-15-15-15-15-0-0-|
|-13-13-15-13-13-13---15-|-(15)-15-17-15-15-15-0-0-|
|-13-13-13-13-13-13---15-|-(15)-15-15-15-15-15-0-0-|
|
|  E  E  E  E  E  E E  E     E   E  E  E  E  E E E
|------------------------|-------------------------|
|------------------------|-------------------------|
|------------------------|-------------------------|
|-10-10-10-10-10-10-x-12-|--12--12-14-12-12-12-0-0-|
|--8--8--8--8--8--8-x-10-|--10--10-10-10-10-10-0-0-|
|------------------------|---------------------0-0-|


                                           H.=H
    ~~                ~~~~~~~~~
  a Q.    E  E  E  E  E    +H.       Q     E E E E E E E E   E E E E E E E E
|-----------------------|----------------|-----------------|------------------|
|---------------8-10-13-|-(13)------13\--|-----------------|------------------|
|---------6s=8----------|----------------|-9s8---9s8---9s8-|---9s8---9s8s9s8--|
|-6s8-------------------|----------------|-----8-----8-----|-8-----8----------|
|-----------------------|----------------|-----------------|------------------|
|-----------------------|----------------|-----------------|------------------|
|
|                     ~~~~~~~~~
|   Q.    E  E  E  E  E    +H.       Q     E E E E E E E E   E E E E E E Q
|-----------------------|----------------|-----------------|------------------|
|-----------------------|----------------|-----------------|------------------|
|-----------------------|----------------|-----------------|------------------|
|--------------------10-|-(10)-------0---|-----------------|------------------|
|--------------10-12----|------------0---|-8p7---8p7---8p7-|---8p7---8p7-0----|
|---8----10s12----------|----------------|-----8-----8-----|-8-----8----------|


 Free Time
  +H     +H        +H      +H
|---------------:------------------:
|---------------:------------------:
|-(8)----(8)----:--(8)----([8])----:
|---------------:------------------:
|---------------:------------------:
|---------------:------------------:
|
|  W               +W
|---------------:------------------:
|---------------:------------------:
|---------------:------------------:
|---------------:------------------:
|-10------------:-(10)-------------:
|--8------------:------------------:


                              Moderately Fast  Q=135
                  ~~~~~~~~~~~~~~~~~~
   H      H       H    +H       +H.      +E   E
|---------------:-------------|-----------------||
|---------------:-8-----------|---------------0-||
|-[7]----[8]----:-8----(8)----|-(8)------(8)/-0-||
|---------------:-8-----------|---------------0-||
|---------------:-------------|---------------0-||
|---------------:-------------|-----------------||
|
|  W              W              W
|---------------:-------------|-----------------||
|---------------:-------------|-----------------||
|---------------:-------------|-----------------||
|---------------:-------------|-----------------||
|---------------:-------------|-----------------||
|---------------:-------------|-----------------||


 Outro
   E  E  E  E  E  E  E  E    E  E  E  E  Q     E  E
|-------------------------|-------------------------|
|-------------------------|-------------------------|
|--------9--9--9----------|--9--9--9--9--9-----9----|
|--8--8--8--8--8--8--8--8-|--8--8--8--8--8-----8--8-|
|--8--8-10-10-10--8--8--8-|-10-10-10-10-10----10--8-|
|--8--8--8--8--8--8--8--8-|--8--8--8--8--8-----8--8-|
|
|  E  E  E  E  E  E  E  E    E  E  E  E  E  E  E  E
|-------------------------|-------------------------|
|-------------------------|-------------------------|
|-------------------------|-------------------------|
|-------------------------|-------------------------|
|-10-10-12-10-10-10-12-10-|-10-10-12-10-10-10-12-10-|
|--8--8--8--8--8--8--8--8-|--8--8--8--8--8--8--8--8-|


   E  E  E  E  E  E  E  E    E  E  E  E +H
|-------------------------|--------------------------|
|-------------------------|--------------------------|
|--------9--9--9----------|--9--9--9-----------------|
|--8--8--8--8--8--8--8--8-|--8--8--8--8-(8)----------|
|--8--8-10-10-10--8--8--8-|-10-10-10--8-(8)----------|
|--8--8--8--8--8--8--8--8-|--8--8--8--8-(8)----------|
|
|  E  E  E  E  E  E  E  E    E  E  E  E  E   E  E  E
|-------------------------|--------------------------|
|-------------------------|--------------------------|
|-------------------------|--------------------------|
|-------------------------|--------------------------|
|-10-10-12-10-10-10-12-10-|-10-10-12-10-10--10-12-10-|
|--8--8--8--8--8--8--8--8-|--8--8--8--8--8---8--8--8-|


   E  E  E  E  E  E  E  E    E  E  E  E  E  E  E  E
|-------------------------|-------------------------|
|-------------------------|-------------------------|
|--------------------9----|--------9--------------9-|
|--8--8--8--8--8--8--8--8-|--8--8--8--8--8--8--8--8-|
|--8--8--8--8--8--8-10--8-|--8--8-10--8--8--8--8-10-|
|--8--8--8--8--8--8--8--8-|--8--8--8--8--8--8--8--8-|
|
|  E  E  E  E  E  E  E  E    E  E  E  E  E  E  E  E
|-------------------------|-------------------------|
|-------------------------|-------------------------|
|-------------------------|-------------------------|
|-------------------------|-------------------------|
|-10-10-12-10-10-10-12-10-|-10-10-12-10-10-10-12-10-|
|--8--8--8--8--8--8--8--8-|--8--8--8--8--8--8--8--8-|


   E  E  E  E  E  E  E  E    E  E  E  E  E  E  E  E
|-------------------------|-------------------------|
|-------------------------|-------------------------|
|--------------------9----|--------9--------------9-|
|--8--8--8--8--8--8--8--8-|--8--8--8--8--8--8--8--8-|
|--8--8--8--8--8--8-10--8-|--8--8-10--8--8--8--8-10-|
|--8--8--8--8--8--8--8--8-|--8--8--8--8--8--8--8--8-|
|
|  E  E  E  E  E  E  E  E    E  E  E  E  E  E  E  E
|-------------------------|-------------------------|
|-------------------------|-------------------------|
|-------------------------|-------------------------|
|-------------------------|-------------------------|
|-10-10-12-10-10-10-12-10-|-10-10-12-10-10-10-12-10-|
|--8--8--8--8--8--8--8--8-|--8--8--8--8--8--8--8--8-|


   E  E  E  E  E  E  E  E    E  E  E  E  E  E  E  E
|-------------------------|-------------------------|
|-------------------------|-------------------------|
|--------------------9----|--------9--9--9--9--9--8-|
|--8--8--8--8--8--8--8--8-|--8--8--8--8--8--8--8--8-|
|--8--8--8--8--8--8-10--8-|--8--8-10-10-10-10-10--8-|
|--8--8--8--8--8--8--8--8-|--8--8--8--8--8--8--8--8-|
|
|  E  E  E  E  E  E  E  E    E  E  E  E  E  E  E  E
|-------------------------|-------------------------|
|-------------------------|-------------------------|
|-------------------------|-------------------------|
|-------------------------|-------------------------|
|-10-10-12-10-10-10-12-10-|-10-10-12-10-10-10-12-10-|
|--8--8--8--8--8--8--8--8-|--8--8--8--8--8--8--8--8-|


   E  E  E  E  E  E  E  E    E  E  E  E  E E E E
|-------------------------|----------------------||
|-------------------------|----------------------||
|--------------------9----|----------------------||
|--8--8--8--8--8--8--8--8-|--8--8--8--8--8---6-7-||
|--8--8--8--8--8--8-10--8-|--8--8--8--8--8-5-6-7-||
|--8--8--8--8--8--8--8--8-|--8--8--8--8--8-5-6-7-||
|
|  E  E  E  E  E  E  E  E    E  E  E  E  E E E E
|-------------------------|----------------------||
|-------------------------|----------------------||
|-------------------------|----------------------||
|-------------------------|----------------------||
|-10-10-12-10-10-10-12-10-|-10-10-12-13-13-7-8-8-||
|--8--8--8--8--8--8--8--8-|--8--8--8--8--8-5-6-6-||


  Faster Q=140
          N.C.
   Q   Q   H      Wx14
|---------------|---------|
|---------------|---------|
|---------------|---------|
|--8---8\-------|---------|
|--8---8\-------|---------|
|--8---8\-------|---------|
|
|  E E Q   H      Wx14
|---------------|---------|
|---------------|---------|
|---------------|---------|
|---------------|---------|
|-10------------|---------|
|--8------------|---------|


                    Slower Q=135
  Gtrs I, II        Gtr I
               PM
  E E E a E Q  Q       E E E E E E  E E   E E  E  E  E  E  E E
|-------------------||------------------|-----------------------|
|-------------------||------------------|-----------------------|
|-------------------||--------------9-8-|------9--9--9--9--9----|
|---8s6-----8-------||-8-8-8-8-8-8--8-8-|-8-8--8--8--8--8--8-8--|
|-------6s8------10-||-8-8-8-8-8-8-10-8-|-8-8-10-10-10-10-10-8--|
|--------------8--8-||-8-8-8-8-8-8--8-8-|-8-8--8--8--8--8--8-8--|
  H         Q  E  E


  E E E E E E  E E   E E  E  E  E  E  E E   E E E E E E  E E
|------------------|----------------------|------------------|
|------------------|----------------------|------------------|
|--------------9-8-|------9--9--9--9--9---|--------------9-8-|
|-8-8-8-8-8-8--8-8-|-8-8--8--8--8--8--8-8-|-8-8-8-8-8-8--8-8-|
|-8-8-8-8-8-8-10-8-|-8-8-10-10-10-10-10-8-|-8-8-8-8-8-8-10-8-|
|-8-8-8-8-8-8--8-8-|-8-8--8--8--8--8--8-8-|-8-8-8-8-8-8--8-8-|


  E E  E  E  E  E  E E   E E E E E E  E E   E E  E  E  Q  S  E.
|----------------------|------------------|---------------------|
|----------------------|------------------|-----------------15\-|
|------9--9--9--9--9---|--------------9-8-|------9--9--9--------|
|-8-8--8--8--8--8--8-8-|-8-8-8-8-8-8--8-8-|-8-8--8--8--8--------|
|-8-8-10-10-10-10-10-8-|-8-8-8-8-8-8-10-8-|-8-8-10-10-10--------|
|-8-8--8--8--8--8--8-8-|-8-8-8-8-8-8--8-8-|-8-8--8--8--8--------|


    ~~
  a Q.    E  E  E  E  E    +H      +E  E  E E
|-----------------------|---------------------|
|---------------8-10-13-|-(13)----(13)s6s18---|
|---------6s=8----------|---------------------|
|-6s8-------------------|---------------------|
|-----------------------|---------------------|
|-----------------------|---------------------|
|
| Gtr II
|                     ~~~~~~~~~
|   Q.    E  E  E  E  E    +H       Q     Q
|-----------------------|---------------------|
|-----------------------|---------------------|
|-----------------------|---------------------|
|--------------------10-|-(10)------------0---|
|--------------10-12----|-----------------0---|
|---0----10s12----------|---------------------|


  H.=H
   E  E  E  E  E  E  E  E    E  E  E  E  E  E  E  E
|-------------------------|--------------------------||
|-------------------------|--------------------------||
|-21s20----21s20----21s20-|----21s20----21s20s21s20--||
|-------20-------20-------|-20-------20--------------||
|-------------------------|--------------------------||
|-------------------------|--------------------------||
|
|  E  E  E  E  E  E  E  E    E  E  E  E  E  E  Q
|-------------------------|--------------------------||
|-------------------------|--------------------------||
|-------------------------|--------------------------||
|-------------------------|--------------------------||
|--8p=7-----8p=7-----8p=7-|-----8p=7-----8p=7--0-----||
|--------8--------8-------|--8--------8--------------||


 Free Time
   +Q     +H      +E     E        E    E    E    E   +Q    E    E
|-----------------------------:-------------------------------------:
|-----------------------------:-------------------------------------:
|-(20)--([20])--([20])S[19]S==:=[20]S[19]S[20]S[19]-(19)-[20]-[19]--:
|-----------------------------:-------------------------------------:
|-----------------------------:-------------------------------------:
|-----------------------------:-------------------------------------:
|
|   W                             Q         Q         H
|-----------------------------:-------------------------------------:
|-----------------------------:-------------------------------------:
|-----------------------------:-------------------------------------:
|-----------------------------:-------------------------------------:
|--10-------------------------:--10---------------------------------:
|---8-------------------------:---8---------------------------------:


   +Q     +E     +E    +Q     +Q
|-----------------------------------:
|-----------------------------------:
|-(19)--([19])-([19])-(19)--([19])--:
|-----------------------------------:
|-----------------------------------:
|-----------------------------------:
|
|   W
|-----------------------------------:
|-----------------------------------:
|-----------------------------------:
|-----------------------------------:
|-----------------------------------:
|-----------------------------------:


                               Faster Q=135
                         ~~~~~~~~~~~~~~
    +E     +E      Q     H         +W            Q   Q  H
|------------------------------||-------------|--------------*|
|------------------0-----------||-------------|--------------*|
|-([19])-([19])\-[18]S=[20]----||-(20)--------|--------------*|
|------------------------------||-------------|--8\----------*|
|------------------------------||-------------|--8\----------*|
|------------------------------||-------------|--8\----------*|
|
|    W                              W            Q   Q  H
|------------------------------||-------------|--------------*|
|------------------------------||-------------|--------------*|
|------------------------------||-------------|--------------*|
|------------------------------||-------------|--------------*|
|------------------------------||-------------|-10\----------*|
|------------------------------||-------------|--8\----------*|


Duration Legend
---------------
W - whole; H - half; Q - quarter; E - 8th; S - 16th; T - 32nd; X - 64th; a - acciaccatura
+ - note tied to previous; . - note dotted; .. - note double dotted
Uncapitalized letters represent notes that are staccato (1/2 duration)
Irregular groupings are notated above the duration line
Duration letters will always appear directly above the note/fret number it represents the
duration for.  Duration letters with no fret number below them represent rests.  Multi-
bar rests are notated in the form Wxn, where n is the number of bars to rest for.  Low
melody durations appear below the staff

Tablature Legend
----------------
 h   - hammer-on
 p   - pull-off
 b   - bend
 pb  - pre-bend
 r   - bend release (if no number after the r, then release immediately)
 /\  - slide into or out of (from/to "nowhere")
 s   - legato slide
 S   - shift slide
  - natural harmonic
[n]  - artificial harmonic
n(n) - tapped harmonic
 ~   - vibrato
 tr  - trill
 T   - tap
 TP  - trem. picking
 PM  - palm muting
\n/  - tremolo bar dip; n = amount to dip
 \n  - tremolo bar down
 n/  - tremolo bar up
/n\  - tremolo bar inverted dip
 =   - hold bend; also acts as connecting device for hammers/pulls
 <>  - volume swell (louder/softer)
 x   - on rhythm slash represents muted slash
 o   - on rhythm slash represents single note slash

Misc Legend
-----------
 |  - bar
||  - double bar
||o - repeat start
o|| - repeat end
*|  - double bar (ending)
 :  - bar (freetime)
 $  - Segno
 &  - Coda
Tempo markers -  = BPM(8/16=s8/s16), where s8 = swing 8ths, s16 = swing 16ths


Добавлено: 25.02.2012
Другие материалы по этой песне:

Страница создана 25.02.2012
http://primanota.ru/foghat/home-in-my-hand-chords.htm
Привет, Гость.
Предлагаем пройти революционный курс по гитаре.
Подарок от PrimaNota.Ru, забирай!