PrimaNota.ru - самый крупный в мире бесплатный архив песенных текстов, аккордов, табулатур и нот


Foghat - Driving Wheel - таба, видео

Регистрация Запомнить меня
Войти через:  Facebook Google Twitter Vk Yandex Mail.ru

Foghat - Driving Wheel - таба, видео

Печатать
Просмотров: 124
As recorded by Foghat
                        (From the 1976 Album NIGHT SHIFT)

Words and Music by Lonesome Dave Peverett and Rod Price
Transcribed by Tone Jone's

Gtr I (E B E G# B E) - '(All Gtr's)Dist Gtr Open E Tuning'
Gtr II (E B E G# B E) - 'Dist Gtr. Open E Tuning'
Gtr III (E B E G# B E) - 'Dist Gtr. Open E Tuning'

 Intro
  Moderately Fast  Q=139
  D5                                                           C
 4/4
  Gtr II
                                       <                 >
  W                       H            H        +H      +Q        +Q
|----------------------|--------------27-----|-(27)----(27)------(27)-|
|----------------------|---------------------|------------------------|
|----------------------|---------------------|------------------------|
|----------------------|---------------------|------------------------|
|----------------------|---------------------|------------------------|
|----------------------|---------------------|------------------------|
|
| Gtr I
| E  E  E  E  E  Q   E    E  E  E  E  +H        +H.          E S   S
|----------------------|---------------------|------------------------|
|----------------------|---------------------|------------------------|
|----------------------|---------------------|-----------------8---8--|
|------------10-10-----|-------10-10-(10)----|-(10)----------0-8---8--|
|---------------10-----|-------10-10-(10)----|-(10)----------0-8---8--|
|---10-13-10--------10-|-13-10---------------|---------------0-8---8--|


                   G                  D
           <
  H        H             +W
|---------22----------|-(22)----------------|
|---------------------|---------------------|
|---------------------|---------------------|
|---------------------|---------------------|
|---------------------|---------------------|
|---------------------|---------------------|
|
| E E  Q   E E   E  E    +E   E  E  E  H
|---------------------|---------------------|
|---------------------|---------------------|
|-8-8--9---9----10-11-|-(11)-11-11p10-10----|
|-8-8--8---8-8/-10-10-|-(10)-10-10----10----|
|-8-8-10--10-8/-10-12-|-(12)-12-12p10-10----|
|-8-8--8---8-8/-10-10-|-(10)-10-10----10----|


                   2/4       4/4
              ~~~~~~~~~~~~~~~~~~~~~
   +H.       +Q      +H        +W
|-(22)------(22)--|-(22)----|-(22)--------------------------|
|-----------------|---------|-------------------------------|
|-----------------|---------|-------------------------------|
|-----------------|---------|-------------------------------|
|-----------------|---------|-------------------------------|
|-----------------|---------|-------------------------------|
|
|  +W                +H         E   E  E       E  E  Q   E
|-----------------|---------|-------------------------------|
|-----------------|---------|-------------------------------|
|-(10)------------|-(10)----|-------------------------------|
|-(10)------------|-(10)----|--------------------10-10------|
|-(10)------------|-(10)----|--------------------10-10------|
|-(10)------------|-(10)----|------10-13b13.5-10--------10--|


                              C
    ~~~~~~~~~~~~~~~~~~~~~~~~~~~~~~~
   +W
|-(22)----------------------------|
|---------------------------------|
|---------------------------------|
|---------------------------------|
|---------------------------------|
|---------------------------------|
|
|   E       E  E  E  +E   E E S S
|---------------------------------|
|---------------------------------|
|-----------------------------8-8-|
|-------------10-10-(10)-10---8-8-|
|-------------10-10-(10)-10-0-8-8-|
|--13b13.5-10---------------0-8-8-|


                     G               D
 ~~~~~~~~~~~~~~~~~~~~~~~~~~~~~~
   +W                      +H               +H
|-(22)------------------|-(22)-------------(22)\-----|
|-----------------------|----------------------------|
|-----------------------|----------------------------|
|-----------------------|----------------------------|
|-----------------------|----------------------------|
|-----------------------|----------------------------|
|
|   E  E  Q   E E  E  E    +E   E  E  E  E   E    Q
|--------------------10-|-(10)-10-10----10--10---10--|
|--------------------10-|-(10)-10-10----10--10---10--|
|---8--8--9---9------11-|-(11)-11-11p10-10--10---10--|
|---8--8--8---8-8S10-10-|-(10)-10-10----10--10---10--|
|---8--8-10--10-8S10-12-|-(12)-12-12p10-10--10---10--|
|---8--8--8---8-8S10-10-|-(10)-10-10----10--10---10--|


                                                     C
                 ~~                  ~~
   Q     S S  E  H           S S  E  H             E  E
|---------------10--------|---------10------------10-10---|
|-------------------------|-------------------------------|
|-------10s8--------------|-10s9s10-----------------------|
|------------10-----------|-10s9s10-----------------------|
|-------------------------|-------------------------------|
|-------------------------|-------------------------------|
|
|  E  E  E    E  E  Q   E    E    E  E  E  +E   E  E  S S
|-------------------------|-------------------------------|
|-------------------------|-------------------------------|
|-------------------------|---------------------------8-8-|
|---------------10-10-----|---------10-10-(10)-10-----8-8-|
|-12------------10-10-----|---------10-10-(10)-10--0--8-8-|
|-10-10-13---10--------10-|-13---10----------------0--8-8-|


                     G               D
              ~~~                         ~~~~
   E E  E  E  Q    E  E     E   E  E  E  +Q.         +E
|-10s8--8s10-10---10-10-|--15s=13-17s22-(22)--------(22)\---||
|-----------------------|-----------------------------------||
|-----------------------|-----------------------------------||
|-----------------------|-----------------------------------||
|-----------------------|-----------------------------------||
|-----------------------|-----------------------------------||
|
|  Q    Q     E E  E  E    +E   E  E  E  +E  a  Q.
|--------------------10-|-(10)------------------------------||
|--------------------10-|-(10)---------------8s10\----------||
|--8----9-----9p8----11-|-(11)-11-11-10-(10)-8s10\----------||
|--8----8-----8----8-10-|-(10)-10-10-10-(10)-8s10\----------||
|--8---10----10p8--8-12-|-(12)-12-12-10-(10)-8s10\----------||
|--8----8-----8----8-10-|-(10)-10-10-10-(10)----------------||


   Verse 1&2
      D                                          C                    G
      Gtr I
    E  E  E  E  E  Q   E    E  E  E  E  +E   E E S S   Q   Q   E E  E  E
||-----------------------|---------------------------|----------------10-|
||o----------------------|---------------------------|----------------10-|
||-----------------------|-----------------------8-8-|-8---9---9-8----11-|
||-------------10-10-----|-------10-10-(10)-10---8-8-|-8---8---8-8-10-10-|
||o------------10-10-----|-------10-10-(10)-10-0-8-8-|-8--10--10-8-10-12-|
||----10-13-10--------10-|-13-10---------------0-8-8-|-8---8---8-8-10-10-|


             D
   +E   E  E  E  +E   E  E  E
|-(10)-10-10---------10-10-10-|
|-(10)-10-10---------10-10-10-|
|-(11)-11-11p10-(10)-10-10-10-|
|-(10)-10-10------------------|
|-(12)-12-12p10-(10)----------|
|-(10)-10-10------------------|


                                               C
  E  E  E  E  E  Q   E    E  E  E  E  +E   E E S S
|----------------------|---------------------------|
|----------------------|---------------------------|
|----------------------|-----------------------8-8-|
|------------10-10-----|-------10-10-(10)-10---8-8-|
|------------10-10-----|-------10-10-(10)-10-0-8-8-|
|---10-13-10--------10-|-13-10---------------0-8-8-|


                 G               D
  Q   Q   E E  E  E    +E   E  E  E  +E   E E E
|----------------10-|-(10)-10-10---------10-----|
|----------------10-|-(10)-10-10---------10-----|
|-8---9---9-8----11-|-(11)-11-11p10-(10)-10-----|
|-8---8---8-8-10-10-|-(10)-10-10---------10-7-5-|
|-8--10--10-8-10-12-|-(12)-12-12p10-(10)-10-7-5-|
|-8---8---8-8-10-10-|-(10)-10-10---------10-7-5-|


  A               G
  Q  E E Q  E E   Q  E E Q  E E
|---------------|---------------|
|---------------|---------------|
|-5--6p5-5--x---|-3--4p3-3--x---|
|-5--5---5--x---|-3--3---3--x---|
|-5--7p5-5--x---|-3--5p3-3--x---|
|-5--5---5--x-5-|-3--3---3--x-5-|


  A               G
  Q  E E Q  E E   Q  E E Q  E E
|---------------|---------------|
|---------------|---------------|
|-5--6p5-5--x---|-3--4p3-3--x---|
|-5--5---5--x---|-3--3---3--x---|
|-5--7p5-5--x---|-3--5p3-3--x---|
|-5--5---5--x-5-|-3--3---3--x-5-|


  A               G
  Q  E E Q  E E   Q  E E E E E E
|---------------|----3---3-------|
|---------------|----3---3-------|
|-5--6p5-5--x---|-3--4p3-3-3-4-5-|
|-5--5---5--x---|-3--3---3-3-4-5-|
|-5--7p5-5--x---|-3--5p3-3-3-4-5-|
|-5--5---5--x-5-|-3--3---3-3-4-5-|


                                      Chorus
                      G6sus4G          D      C     G
  +E  E E E E E E E   Q  Q  Q  E  E     Q  Q  E E E  E
|-------------5-----|-3--3--3--3----||------------------|
|-------------5-----|-3--3--3--3----||------------------|
|-(5)-5-6p5-5-5-5---|-4--4--3--3----||-10-----8-8---11--|
|-(5)-5-5---5-5-5---|-3--3--3--3----||-10-----8-8---10--|
|-(5)-5-7p5-5-5-5---|-5--5--3--3----||-10-----8-8---10h=|
|-(5)-5-5---5-5-5-5-|-3--3--3--3-10-||-10-----8-8-------|


                                D        C     G
  Gtr II
                            ~~~~~~~~~~~~~~~~~~~~~~~~~~~~~
   H         a  E.  S  E a  E    +W                  +H          Q   Q
|-----------------------------|-------------------|-----------------------|
|-----------------------------|-------------------|-----------------------|
|-----------------------------|-------------------|-----------------------|
|-----------10s=8-----10-8s10-|-(10)--------------|-(10)------------------|
|------------------10---------|-------------------|-------------10s==8s===|
|-----------------------------|-------------------|-----------------------|
|
| Gtr I
|  E  E  Q      Q      Q          Q   Q  E E E  E     E   E  Q   Q   E  E
|-----------------------------|-------------------|-----------------------|
|-----------------------------|-------------------|-----------------------|
|----11-11-----11-----11------|--10------8-8---11-|------11-11--11--11-10-|
|----10-10-----10-----10------|--10------8-8---10-|------10-10--10--10-10-|
|-12-12-12-----12-----12------|--10------8-8---10h|==12--12-12--12--12-10-|
|-----------------------------|--10------8-8------|-----------------------|


  D      C     G
   ~~~~~~~~~~~~~~~~~~~~~~
   W                 +H.               Q
|-----------------|-----------------------|
|-----------------|-----------------------|
|-----------------|-----------------------|
|-----------------|-----------------------|
|-10--------------|-(10)------------------|
|-----------------|-----------------------|
|
| Gtr I
|  Q  Q  E E E  E     E   E  Q   E  E  Q
|-----------------|-----------------------|
|-----------------|-----------------------|
|-10-----8-8---11-|------11-11--11-11-11--|
|-10-----8-8---10-|------10-10--10-10-10--|
|-10-----8-8---10h|==12--12-12--12-12-12--|
|-10-----8-8------|-----------------------|
|
| Gtr II
|  Q  Q  E E E  E     E   E  Q   Q     Q
|-----------------|-----------------------|
|-----------------|-----------------------|
|-10-----8-8---11-|------11-11--11----11--|
|-10-----8-8---10-|------10-10--10----10--|
|-10-----8-8---10h|==12--12-12--12----12--|
|-10-----8-8------|-----------------------|


                             1.
  D         C           G
                                                2/4
                         ~~~~~~~~~~
   E E a  E  E  E  a  E  Q     +H.       +Q        W
|---------------------------|------------------|---------||
|---------------------------|------------------|---------||
|---------------------------|------------------|---------||
|-10s8------10s=8-------10--|-(10)------(10)\--|---------||
|------8s10--------8s10-----|------------------|---------||
|---------------------------|------------------|---------||
|
|  Q.        E +E     E  Q     +W                 +H
|---------------------------|------------------|---------||
|---------------------------|------------------|---------||
|-10---------8-(8)------11--|-(11)-------------|-(11)----||
|-10---------8-(8)------10--|-(10)-------------|-(10)----||
|-10---------8-(8)---10-12--|-(12)-------------|-(12)----||
|-10---------8-(8)----------|------------------|---------||
|
|  Q.        E +E     E  Q     +W                 +H
|---------------------------|------------------|---------||
|---------------------------|------------------|---------||
|-10---------8-(8)-------3--|--(3)-------------|--(3)----||
|-10---------8-(8)-------3--|--(3)-------------|--(3)----||
|-10---------8-(8)-------3--|--(3)-------------|--(3)----||
|-10---------8-(8)-------3--|--(3)-------------|--(3)----||


 Interlude
  D                                             C
 4/4
   E  E  E  E  E  Q   E    E  E  E  E  +E   E E S S
|-----------------------|---------------------------|
|-----------------------|---------------------------|
|-----------------------|-----------------------8-8-|
|-------------10-10-----|-------10-10-(10)-10---8-8-|
|-10----------10-10-----|-------10-10-(10)-10-0-8-8-|
|-10-10-13-10--------10-|-13-10---------------0-8-8-|


                  G               D
  E E  Q   E E  E  E    +E   E  E  E  E  E  Q
|-----------------10-|-(10)-10-10----10-10-10\----||
|-----------------10-|-(10)-10-10----10-10-10\---o||
|-8-8--9---9------11-|-(11)-11-11p10-10-10-10\----||
|-8-8--8---8-8S10-10-|-(10)-10-10----10-10-10\----||
|-8-8-10--10-8S10-12-|-(12)-12-12p10-10-10-10\---o||
|-8-8--8---8-8S10-10-|-(10)-10-10----10-10-10\----||


 Interlude 2
  2.
                     D
  Gtr III
    ~~~~
    H.       +Q       W                       E  E  E  E  +Q    +E   E
|------------------|-----------------------|---------------------------||
|------------------|-----------------------|---------------------------||
|------------------|-----------------------|---------------------------||
|--10-------(10)\--|-----------------------|----------10-(10)--(10)\---||
|------------------|-----------------------|---------------------------||
|------------------|-----------------------|-13s12-10------------------||
|
| Gtr II
|   W                 E  E  E  E  E  Q   E    E  E  E  E  +Q     Q
|------------------|-----------------------|---------------------------||
|------------------|-----------------------|---------------------------||
|-(11)-------------|-----------------------|---------------------------||
|-(10)-------------|-------------10-10-----|----------10-(10)----------||
|-(12)-------------|-10----------10-10-----|----------10-(10)----0-----||
|------------------|-10-10-13-10--------10-|-13-12-10------------0-----||
|
| Gtr I
|   W                 E  E  E  E  E  Q   E    E  E  E  E  +Q     Q
|------------------|-----------------------|---------------------------||
|------------------|-----------------------|---------------------------||
|--(3)-------------|-----------------------|---------------------------||
|--(3)-------------|-------------10-10-----|----------10-(10)----------||
|--(3)-------------|-------------10-10-----|----------10-(10)----------||
|--(3)-------------|----10-13-10--------10-|-13-12-10------------------||


 Bridge
     G
   a  H.           E   E     H.            E   E
|-------------------------|-------------------------|
|-13s15---------------13s=|=15----------------13s===|
|-13s15-----------13-(13)s|=15------------13-(13)s==|
|-------------------------|-------------------------|
|-------------------------|-------------------------|
|-------------------------|-------------------------|
|
|     Q   E E E E  E   E    +E  E E E E E  E   E
|-------------------------|-------------------------|
|-------------------------|-------------------------|
|-------------------------|-------------------------|
|-----3----------------3--|-(3)-3--------------3----|
|-----3---5-3-6----x---3--|-(3)-3-5-3-6----x---3----|
|-----3---3-3-3----x---3--|-(3)-3-3-3-3----x---3----|
|
|     Q   E E E E  E   E    +E  E E E E E  E   E
|-------------------------|-------------------------|
|-------------------------|-------------------------|
|-------------------------|-------------------------|
|-----3----------------3--|-(3)-3--------------3----|
|-----3---5-3-5----x---3--|-(3)-3-5-3-6----x---3----|
|-----3---3-3-3----x---3--|-(3)-3-3-3-3----x---3----|


                                           A
  Gtr III
   H.            E   E     H.            E   E
|-----------------------|-----------------------|
|-15----------------13s=|=15----------------15s=|
|-15------------13-(13)s|=15------------15-(15)s|
|-----------------------|-----------------------|
|-----------------------|-----------------------|
|-----------------------|-----------------------|
|
| Gtr I
| +E  E E E E E  E   E    +E  E E E E E  E   E
|-----------------------|-----------------------|
|-----------------------|-----------------------|
|-----------------------|-----------------------|
|-(3)-3--------------3--|-(3)----------------5--|
|-(3)-3-5-3-6----x---3--|-(3)-3-5-3-6----x---5--|
|-(3)-3-3-3-3----x---3--|-(3)-3-3-3-3----x---5--|


   ~~~                     ~~~
   H.            E   E     H.            E  E
|-----------------------|-----------------------|
|-17----------------15--|-17---------------15s==|
|-17------------15-(15)-|-17------------15------|
|-----------------------|-----------------------|
|-----------------------|-----------------------|
|-----------------------|-----------------------|
|
| +E  E E E E E  E   E    +E  E E E E E  E  E
|-----------------------|-----------------------|
|-----------------------|-----------------------|
|-----------------------|-----------------------|
|-(5)----------------5--|-(5)---------------5---|
|-(5)-5-7-5-8----x---5--|-(5)-5-7-5-8----x--5---|
|-(5)-5-5-5-5----x---5--|-(5)-5-5-5-5----x--5---|


   ~~~
   H.            +Q       H        Q     Q
|----------------------|-----------------------||
|-17------------(17)s==|=11s=======5s===11\----||
|----------------------|-11s=======5s===11\----||
|----------------------|-----------------------||
|----------------------|-----------------------||
|----------------------|-----------------------||
|
| +E  E E E E E   E  E    E E E E +E  E  E   E
|----------------------|-----------------------||
|----------------------|-----------------------||
|----------------------|-----------------------||
|-(5)------------------|-----------------------||
|-(5)-5-7-5-8-5---7--5-|--8-5-7-5-(5)-5--5-----||
|-(5)-5-5-5-5-5---5--5-|--5-5-5-5-(5)-5--5--10-||


 Guitar Solo
    D         C              G
     ~~                                      ~~~~~~~~~~~~
  a  H      a E.   a  S  S E    a  S    E a  Q.      +E   E  E  E
|------------------------------------|----------------------------|
|------------------------------------|----------------------------|
|------------------------------------|----------------------------|
|-8s10-----10s8---------10s8---------|-10-8s10------(10)-10-10-10-|
|------------------8s10---------8s10-|----------------------------|
|------------------------------------|----------------------------|
|
|    Q  Q     E  E       E    E         E    E   Q    Q      Q
|------------------------------------|----------------------------|
|------------------------------------|----------------------------|
|---10--------8--8-----------11------|------11--11---11-----11----|
|---10--------8--8-----------10------|------10--10---10-----10----|
|---10--------8--8-----------10------|-12---12--12---12-----12----|
|---10--------8--8-------------------|----------------------------|


  D        C              G
                           ~~~~~~~~~~~~~~~~~~~~~
   E Q   E  S E    S  E a  E    +H          +Q.      S S
|----------------------------|---------------------------|
|----------------------------|----------------------10s8s|
|--9s8s==9-------------------|---------------------------|
|----------10s8------10-8s10-|-(10)--------(10)----------|
|-----------------10---------|---------------------------|
|----------------------------|---------------------------|
|
|  Q   Q    E   E     E    E     E   E  Q    Q    E  E
|----------------------------|---------------------------|
|----------------------------|---------------------------|
|-10--------8---8---------11-|------11-11---11---11-10---|
|-10--------8---8---------10-|------10-10---10---10-10---|
|-10--------8---8---------10h|==12--12-12---12---12-10---|
|-10--------8---8------------|---------------------------|


  D          C        G
      ~~
   E  Q    E  E  E  Q       E  S S +E   E  E  E  E  E
|----10---10-12s14-10----|-10--------------------------|
|-10---------------------|----10s9-(9)----10-----------|
|------------------------|-------------10----10s=8-----|
|------------------------|-------------------------10--|
|------------------------|-----------------------------|
|------------------------|-----------------------------|
|
|  Q    Q     E  E  E  E    E  E    Q      E  E  Q
|------------------------|-----------------------------|
|------------------------|-----------------------------|
|-10----------8--8----11-|----11---11-----11-11-11-----|
|-10----------8--8----10-|----10---10-----10-10-10-----|
|-10----------8--8----10h|=12-12---12-----12-12-12-----|
|-10----------8--8-------|-----------------------------|


    D                C            G
                                   ~~~
  a  E  E  S S  E  a E  E a  E  a  E
|------------------------------------|
|------------------------------13s15-|
|-9s10----10s8-----------------13s15-|
|------10------10-10s8----8s10-------|
|----------------------10------------|
|------------------------------------|
|
|    Q     Q         E  E    E     E
|------------------------------------|
|------------------------------------|
|---10---------------8--8------------|
|---10---------------8--8----------3-|
|---10---------------8--8----------3-|
|---10---------------8--8----------3-|


 ~~~~~~~~~~~                                 ~~~~~~~       ~~
   +Q     Q    +E   a E   E  E    +E   E  E  E  +E   a  E  Q
|------------------------------|--------------------15s19-15---|
|-(15)---15---(15)----------15-|-(15)--------------------------|
|-(15)---15---(15)-12p5/h15----|------15s13--------------------|
|------------------------------|------------15-(15)------------|
|------------------------------|-------------------------------|
|------------------------------|-------------------------------|
|
|  +E  E  E E   E     E   E  E    +E   E  E  E   E      E  E E
|------------------------------|-------------------------------|
|------------------------------|-------------------------------|
|------------------------------|-------------------------------|
|--(3)-3---------------------3-|--(3)--3---------------------3-|
|--(3)-3--5-3---6---------x--3-|--(3)--3--5--3---6---------x-3-|
|--(3)-3--3-3---3---------x--3-|--(3)--3--3--3---3---------x-3-|


                                                          A
                            ~~~~~~~~~                      ~~~
   a  E   E  E  E  E  E  E  E    +Q.       a   E  E  E  E  E
|-----------------------------|------------------------------|
|--------15-15-15-15s14-13-12-|-(12)-----(12)s15----15-16-17-|
|-13s15--15-15-15-------------|------------------15----16-17-|
|-----------------------------|------------------------------|
|-----------------------------|------------------------------|
|-----------------------------|------------------------------|
|
|    +E   E  E  E  E  E  E  E    +E  E E       E  E  E  E  E
|-----------------------------|------------------------------|
|-----------------------------|------------------------------|
|-----------------------------|------------------------------|
|----(3)--3-----------------3-|--(3)-----------------------5-|
|----(3)--3--5--3--6-----x--3-|--(3)-3-5-------3--6-----x--5-|
|----(3)--3--3--3--3-----x--3-|--(3)-3-3-------3--3-----x--5-|


 ~~~~~~               ~~~~~~~
   +Q     E  E  S  S  E  +E   E
|--------19s21-17----17-(17)-17--|
|-(17)------------17-------------|
|-(17)---------------------------|
|--------------------------------|
|--------------------------------|
|--------------------------------|
|
|  +E  E  E  E  E     E   E   E
|--------------------------------|
|--------------------------------|
|--------------------------------|
|--(5)------------------------5--|
|--(5)-5--7--5--8---------x---5--|
|--(5)-5--5--5--5---------x---5--|


   S   E.    E  E  a  E  E  E  E
|--------------------------------|
|-17s=15-------------------------|
|-----------15s17----------------|
|-----------------15s14----14-17-|
|-----------------------17-------|
|--------------------------------|
|
| +E      E  E  E     E  E  E  E
|--------------------------------|
|--------------------------------|
|--------------------------------|
|-(5)--------------------------5-|
|-(5)-----5--7--5-----8-----x--5-|
|-(5)-----5--5--5-----5-----x--5-|


                                           N.C.
                                             ~~          ~
   S   S  E  E  E  S  S  a  E  a  E.   S   a Q.   E +Q   Q
|----------------------------------------|------------------|
|----------------------------------------|------------------|
|-----------------17s15-------17s15s==17-|------------------|
|-17s=14----17-17-------16s17------------|-3s5----3-(3)-----|
|--------17------------------------------|---------------5--|
|----------------------------------------|------------------|
|
|                                            ~~          ~
| +E      E  E  E  E        E     E E      a Q.   E +Q   Q
|----------------------------------------|------------------|
|----------------------------------------|------------------|
|----------------------------------------|------------------|
|-(5)------------------------------------|-3s5----3-(3)-----|
|-(5)-----5--7--5--8--------------7------|---------------5--|
|-(5)-----5--5--5--5--------------5------|------------------|


   ~~~                   ~~          ~~~~~~~~~
   E  Q  +E   Q   Q      Q.   E +Q   Q    +E  Q   E   Q   Q
|--------------------|------------------|---------------------||
|--------------------|------------------|---------------------||
|--------------------|---5----3-(3)-----|---------------------||
|--------------------|---------------5--|-(5)-3s==5-----------||
|--5--3--(3)/-8\--5--|------------------|-------------5\--2---||
|-------------8\--5--|------------------|---------------------||
|
|  ~~~                               ~~~~~~~~~
| +E  Q  +E   Q   Q    a Q.   E +Q   Q    +E  Q  +E   Q   Q
|--------------------|------------------|---------------------||
|--------------------|------------------|---------------------||
|--------------------|------------------|---------------------||
|--------------------|-3s5----3-(3)-----|---------------------||
|-(5)-3--(3)/-8\--5--|---------------5--|-(5)-3--(3)/-8\--5/--||
|-------------8\--5--|------------------|-------------8\--5/--||


 Chorus
  D      C     G                              D        C     G
                              ~~         ~~~~~~~~~~
   W                 a  Q     Q   S  E.  Q     +H      H
|-----------------|--------------14---------|-------------------|
|-----------------|-13s15----15-----15--15--|-(15)--------------|
|-----------------|-------------------------|-------------------|
|-----------------|-------------------------|-------------------|
|-----------------|-------------------------|-------------------|
|-----------------|-------------------------|-------------------|
|
|  Q  Q  E E E  E       E  E  Q   Q      Q      Q   Q  E E E  E
|-----------------|-------------------------|-------------------|
|-----------------|-------------------------|-------------------|
|-10-----8-8---11-|-------11-11--11-----11--|--10------8-8---11-|
|-10-----8-8---10-|-------10-10--10-----10--|--10------8-8---10-|
|-10-----8-8---10-|----12-12-12--12-----12--|--10------8-8---10-|
|-10-----8-8------|-------------------------|--10------8-8------|


                             D        C     G
  Gtr II
                              ~~~
   Q    a  E  E  E Q     E    Q.    E H
|--------------------------|-------------------|
|--------------------------|-------------------|
|-------9s=8-----8-8s===10-|-------------------|
|------------10------------|-10----------------|
|--------------------------|-------------------|
|--------------------------|-------------------|
|
| Gtr I
|  E  E    Q     Q    E  E    Q   Q   E E E  E
|--------------------------|-------------------|
|--------------------------|-------------------|
|----11---11----11---11-10-|-10-------8-8---11-|
|----10---10----10---10-10-|-10-------8-8---10-|
|-12-12---12----12---12-10-|-10-------8-8---10h|
|--------------------------|-10-------8-8------|
|
| Gtr II
|  W                          Q   Q   E E E  E
|--------------------------|-------------------|
|--------------------------|-------------------|
|--------------------------|-10-------8-8---11-|
|--------------------------|-10-------8-8---10-|
|--------------------------|-10-------8-8---10h|
|--------------------------|-10-------8-8------|


                        D         C           G
                                               ~~
   W                     E E a  E  E  E  a  E  Q
|---------------------|---------------------------:
|---------------------|---------------------------:
|---------------------|---------------------------:
|---------------------|-10s8------10s=8-------10--:
|---------------------|------8s10--------8s10-----:
|---------------------|---------------------------:
|
|  E  E  Q   E  E  Q     Q.        E +E     E  Q
|---------------------|---------------------------:
|---------------------|---------------------------:
|----11-11--11-11-11--|-10---------8-(8)------11--:
|----10-10--10-10-10--|-10---------8-(8)------10--:
|-12-12-12--12-12-12--|-10---------8-(8)---10-12--:
|---------------------|-10---------8-(8)----------:
|
|  E  E  Q   Q     Q     Q.        E +E     E  Q
|---------------------|---------------------------:
|---------------------|---------------------------:
|----11-11--11----11--|-10---------8-(8)-------3--:
|----10-10--10----10--|-10---------8-(8)-------3--:
|-12-12-12--12----12--|-10---------8-(8)-------3--:
|---------------------|-10---------8-(8)-------3--:


 Free Time
                             N.C.
               5/4                   4/4
  Gtr II
    ~~~~            ~~~~
    W           a   H     Q   Q  Q     E  E  H.          H.       Q
|-------------:-8s=10-----8---------:----------------:----------------||
|-------------:--------------10--8--:----------------:----------------||
|-------------:---------------------:----------------:--10-------10\--||
|--10---------:---------------------:-13s12s10-------:-(10)------10\--||
|-------------:---------------------:----------------:----------------||
|-------------:---------------------:----------------:----------------||
|
| Gtr I
|  +W              +H.        H        W                 W
|-------------:---------------------:----------------:----------------||
|-------------:---------------------:----------------:----------------||
|-(11)--------:---(11)--------------:----------------:----------------||
|-(10)--------:---(10)--------------:----------------:----------------||
|-(12)--------:---(12)--------------:----------------:----------------||
|-------------:---------------------:----------------:----------------||
|
| Gtr III
|  +W              +H.        H        W                 W
|-------------:---------------------:----------------:----------------||
|-------------:---------------------:----------------:----------------||
|--(3)--------:----(3)--------------:----------------:----------------||
|--(3)--------:----(3)--------------:----------------:----------------||
|--(3)--------:----(3)--------------:----------------:----------------||
|--(3)--------:----(3)--------------:----------------:----------------||


   Interlude
    D                                             C
     E  E  E  E  E  Q   E    E  E  E  E  +E   E E S S
||------------------------|---------------------------|
||o-----------------------|---------------------------|
||------------------------|-----------------------8-8-|
||--------------10-10-----|-------10-10-(10)-10---8-8-|
||o-10----------10-10-----|-------10-10-(10)-10-0-8-8-|
||--10-10-13-10--------10-|-13-10---------------0-8-8-|


                      1.
                  G               D
  E E  Q   E E  E  E    +E   E  E  E  E  E  Q
|-----------------10-|-(10)-10-10----10-10-10----||
|-----------------10-|-(10)-10-10----10-10-10---o||
|-8-8--9---9------11-|-(11)-11-11p10-10-10-10----||
|-8-8--8---8-8S10-10-|-(10)-10-10----10-10-10----||
|-8-8-10--10-8S10-12-|-(12)-12-12p10-10-10-10---o||
|-8-8--8---8-8S10-10-|-(10)-10-10----10-10-10----||


  2.
           D
   E  E  E  E  E  E  E  E    E  E  E  E  E  E  E  E    E  E  E  E  E  E  E E
|-10-10-10----10-10-10-10-|-------------------------|------------------------|
|-10-10-10----10-10-10-10-|-------------------------|------------------------|
|-11-11-11p10-10-10-10-10-|-------------------------|------------------------|
|-10-10-10----10-10-10-10-|-------------10----------|-------10----------10---|
|-12-12-12p10-10-10-10-10-|-------------10----13----|-12----10----------10-0-|
|-10-10-10----10-10-10-10-|-10-10-13-10----10----10-|----10----10-13-10----0-|


  C                       G
  E E  E  S  S  E a  E  E  E
|-------------------------10-|
|-------------------------10-|
|------9--9--9--9---------11-|
|-8-8--8--8--8--8-8s10-10-10-|
|-8-8-10-10-10-10-8s10-10-12-|
|-8-8--8--8--8--8-8s10-10-10-|


             D
                                 PM---------------|
   +E   E  E  E  E  E  E  E   E  E  E  E  E  E  E  E
|-(10)-10-10----10-10-10-10-|------------------------|
|-(10)-10-10----10-10-10-10-|------------------------|
|-(11)-11-11p10-10-10-10-10-|------------------------|
|-(10)-10-10----10-10-10-10-|------------------------|
|-(12)-12-12p10-10-10-10-10-|---10-12----13----12----|
|-(10)-10-10----10-10-10-10-|---10----10----10----10-|


                           C               G               D
   PM---------------|                                                 PM
   E  E  E  E  E  E  E E   E E  Q   E E  E  E    +E   E  E  E  +Q   E E
|------------------------|-----------------10-|-(10)-10-10--------------|
|------------------------|-----------------10-|-(10)-10-10--------------|
|------------------------|-8-8--9---9------11-|-(11)-11-11p10-(10)------|
|------------------------|-8-8--8---8-8S10-10-|-(10)-10-10--------------|
|-10----12----13----12---|-8-8-10--10-8S10-12-|-(12)-12-12p10-(10)------|
|----10----10----10----0-|-8-8--8---8-8S10-10-|-(10)-10-10------------0-|


  C                                   C#
  Gtr II
  ~~~~~~~~~~~~~~~~~~~~~
  Q.   E +Q   Q    +E  Q   +S   S  Q   Q
|----------------|-----8---(8)s20-20--21--||
|-------------8--|-(8)--------------------||
|------8-(8)-----|------------------------||
|-8--------------|------------------------||
|----------------|------------------------||
|----------------|------------------------||
|
| Gtr I
| Q.   E +Q   Q    +E  Q.          Q   Q
|-8----8-(8)--8--|-(8)-8-----------8---9--||
|-8----8-(8)--8--|-(8)-8-----------8---9--||
|-8----8-(8)--8--|-(8)-8-----------8---9--||
|-8----8-(8)--8--|-(8)-8-----------8---9--||
|-8----8-(8)--8--|-(8)-8-----------8---9--||
|-8----8-(8)--8--|-(8)-8-----------8---9--||


 Chorus
  D      C     G
   ~~
   H     H           H         S E S  E  E
|-22--------------|-------------------------|
|-----------------|-----------10s8-x--8-10--|
|-----------------|-------------------------|
|-----------------|-------------------------|
|-----------------|-------------------------|
|-----------------|-------------------------|
|
|  Q  Q  E E E  E    E  E  Q   Q      Q
|-----------------|-------------------------|
|-----------------|-------------------------|
|-10-----8-8---11-|----11-11--11-----11-----|
|-10-----8-8---10-|----10-10--10-----10-----|
|-10-----8-8---10-|-12-12-12--12-----12-----|
|-10-----8-8------|-------------------------|


  D             C     G                                 D      C     G
            ~~~~                                         ~~
   S S  E  +Q   H           Q     E  E  E  E  E  a  E    H     H
|------------------------|----------------------------|-10---------------|
|------------------------|----------13----13-15-17s18-|------------------|
|--9s8-------------------|-------13----13-------------|------------------|
|------10-(10)-----------|----------------------------|------------------|
|------------------------|----------------------------|------------------|
|------------------------|----------------------------|------------------|
|
|  Q        Q   E E E  E    E  E  Q     Q     E     E    Q  Q  E E E  E
|------------------------|----------------------------|------------------|
|------------------------|----------------------------|------------------|
|-10------------8-8---11-|----11-11----11----11----10-|-10-----8-8---11--|
|-10------------8-8---10-|----10-10----10----10----10-|-10-----8-8---10--|
|-10------------8-8---10h|=12-12-12----12----12----10-|-10-----8-8---10h=|
|-10------------8-8------|----------------------------|-10-----8-8-------|


                                D           C     G
   S E    S  E  E  S E  S  Q    +E  +E  Q   H           W
|-----------------------------|----------------------|----------------------|
|-10s8-------8s10-------------|----------------------|----------------------|
|---------9--------9s8-----8--|-(8)-(8)s9\-----------|----------------------|
|----------------------10-----|----------------------|----------------------|
|-----------------------------|----------------------|----------------------|
|-----------------------------|----------------------|----------------------|
|
|  E    E    Q     Q       Q     Q      Q   E E E  E    E  E  Q   Q   E  E
|-----------------------------|----------------------|----------------------|
|-----------------------------|----------------------|----------------------|
|------11---11----11------11--|-10----------8-8---11-|----11-11--11--11-10--|
|------10---10----10------10--|-10----------8-8---10-|----10-10--10--10-10--|
|-12---12---12----12------12--|-10----------8-8---10-|-12-12-12--12--12-10--|
|-----------------------------|-10----------8-8------|----------------------|


 Outro
  D          C        G
   E. S E. S E.   S E.    S    E  E  E  E   E   E E  E
|---------------------------|--------------------------|
|---------------------------|--------------------------|
|---------------------------|--------------------------|
|--8s10-8s10-8s==10-8s===10-|--8s10--8s10---8s=10-8s10-|
|---------------------------|--------------------------|
|---------------------------|--------------------------|
|
|  Q    Q    E E    E  E       E  Q.       +H
|-10---------8-8------------|--------------------------|
|-10---------8-8------------|--------------------------|
|-10---------8-8------------|----11-------(11)---------|
|-10---------8-8------------|----10-------(10)---------|
|-10---------8-8------10h===|=12-12-------(12)---------|
|-10---------8-8------------|--------------------------|


  D       C       G
   ~~~~~~~~~~
   Q   Q   Q    E  E    Q      Q    Q   E  S  S
|-10------10---10s13-|-13s====12s===7s==3----10-|
|-----10-------10s13-|-13s====12s===7s==3S10----|
|--------------------|--------------------------|
|--------------------|--------------------------|
|--------------------|--------------------------|
|--------------------|--------------------------|
|
|  Q   Q   E E  E  E    E  Q.      +H
|-10-------8-8-------|--------------------------|
|-10-------8-8-------|--------------------------|
|-10-------8-8-------|----11------(11)----------|
|-10-------8-8-------|----10------(10)----------|
|-10-------8-8----10h|=12-12------(12)----------|
|-10-------8-8-------|--------------------------|


  D        C        G
    ~~~~
   +H       E  E  E  E    Q      Q    Q    a  Q
|-(10)-----10----10----|------------------12s17--|
|-------------10----10-|-18s====15s===8\---------|
|----------------------|-18s====15s===8\---------|
|----------------------|-------------------------|
|----------------------|-------------------------|
|----------------------|-------------------------|
|
|   Q   Q   E  E  E  E    E  Q.      +H
|--10-------8--8-------|-------------------------|
|--10-------8--8-------|-------------------------|
|--10-------8--8-------|----11------(11)---------|
|--10-------8--8-------|----10------(10)---------|
|--10-------8--8----10h|=12-12------(12)---------|
|--10-------8--8-------|-------------------------|


  D            C       G
            ~~~~~~~~~~~         ~~~~~~~~~~       ~~~~~~
   +Q    S  E.  Q    Q       S  E.      Q    S   E.  Q
|-(17)--------------------|------------------------------|
|-------18----------------|-----------------18-----------|
|----------18--18---18----|-16-18------18-------18--18---|
|-------------------------|------------------------------|
|-------------------------|------------------------------|
|-------------------------|------------------------------|
|
|   Q    Q      E E  E  E    E      Q.      +H
|--10-----------8-8-------|------------------------------|
|--10-----------8-8-------|------------------------------|
|--10-----------8-8-------|--------11------(11)----------|
|--10-----------8-8-------|--------10------(10)----------|
|--10-----------8-8----10h|=12-----12------(12)----------|
|--10-----------8-8-------|------------------------------|


  D          C           G
      ~~~~~~     ~~~~~~~~         ~~~~~~~~~~       ~~~~~~
   S  E.  Q   S  E.    Q       S  E.      Q    S   E.  Q
|---------------------------|-----------------------------|
|------------18-------------|-----------------18----------|
|-16-18--18-----18----18----|-15s18------18-------18--18--|
|---------------------------|-----------------------------|
|---------------------------|-----------------------------|
|---------------------------|-----------------------------|
|
|  Q      Q   E     E  E  E    E      Q.      +H
|-10----------8-----8-------|-----------------------------|
|-10----------8-----8-------|-----------------------------|
|-10----------8-----8-------|--------11------(11)---------|
|-10----------8-----8-------|--------10------(10)---------|
|-10----------8-----8----10h|=12-----12------(12)---------|
|-10----------8-----8-------|-----------------------------|


  D             C               G
      ~~~    ~~~    ~~~      ~~~
   S  E.  S  E.  S  E.    S  E.
|-----------------------------------|
|--------18--------------18---------|
|-16-18-----18--16-18-------18------|
|-----------------------------------|
|-----------------------------------|
|-----------------------------------|
|
|  Q      Q      E     E  E      E
|-10-------------8-----8------------|
|-10-------------8-----8------------|
|-10-------------8-----8------------|
|-10-------------8-----8------------|
|-10-------------8-----8--------10h=|
|-10-------------8-----8------------|


   S  E.      S  E.  a   Q    Q
|--------------------------------|
|------------18------------------|
|-16s18---------18--16s=18---18--|
|--------------------------------|
|--------------------------------|
|--------------------------------|
|
|  E      Q.            +H
|--------------------------------|
|--------------------------------|
|--------11------------(11)------|
|--------10------------(10)------|
|-12-----12------------(12)------|
|--------------------------------|


     D            C           G
   a  Q  S  E.  a  Q    S  E.       Q      Q    Q    Q
|--------------------------------|-----------------------|
|----------------------18--------|-18s====21s==23s==25S==|
|-16s18--x-18--16s18------18-----|-----------------------|
|--------------------------------|-----------------------|
|--------------------------------|-----------------------|
|--------------------------------|-----------------------|
|
|     Q  Q         E E  E      E    E  Q.      +H
|----10------------8-8-----------|-----------------------|
|----10------------8-8-----------|-----------------------|
|----10------------8-8-----------|----11------(11)-------|
|----10------------8-8-----------|----10------(10)-------|
|----10------------8-8--------10h|=12-12------(12)-------|
|----10------------8-8-----------|-----------------------|


  D       C       G
   ~~~~~~~~~~~~~~~~~~~~~~~~~~~~~~~~~~~~~~~~~~~~~~~~~~~~
   Q   Q   Q    Q       Q      E.  S  +E   E  +S   E.
|--------------------|--------------------------------|
|-27--27--27---27----|-27-----27--27-(27)-27-(27)-27--|
|--------------------|--------------------------------|
|--------------------|--------------------------------|
|--------------------|--------------------------------|
|--------------------|--------------------------------|
|
|  Q   Q   E E  E  E    E  Q.         +H
|-10-------8-8-------|--------------------------------|
|-10-------8-8-------|--------------------------------|
|-10-------8-8-------|----11---------(11)-------------|
|-10-------8-8-------|----10---------(10)-------------|
|-10-------8-8----10h|=12-12---------(12)-------------|
|-10-------8-8-------|--------------------------------|


  D              C                G
 ~~~~~~~~~~~~~~~~~~~~~~~~~~~~~~~~~
   E.  S  +E   E  +E   E  +S   E.
|-------------------------------------|
|-27--27-(27)-27-(27)-27-(27)-27------|
|-------------------------------------|
|-------------------------------------|
|-------------------------------------|
|-------------------------------------|
|
|  Q       Q       E   E   E       E
|-10---------------8---8--------------|
|-10---------------8---8--------------|
|-10---------------8---8--------------|
|-10---------------8---8--------------|
|-10---------------8---8----------10h=|
|-10---------------8---8--------------|


                             D       C             G
   ~~~~~~~~~~~~~~~~~~~~~~~~~~~~~~~~~~~~~~~~~~~~~~~~~~~~~~~~~~~~~~~~~~~~~~~~~
   |----3----|   |--3---|
   Q      Q  Q   Q   Q  Q     Q   Q   E.    S  +Q        Q      Q    Q    Q
|--------------------------|--------------------------|----------------------|
|-27-----27-27--27--27-27--|-27--27--27----27-(27)----|-27-----27---27---27--|
|--------------------------|--------------------------|----------------------|
|--------------------------|--------------------------|----------------------|
|--------------------------|--------------------------|----------------------|
|--------------------------|--------------------------|----------------------|
|
|  E  Q.        +H            Q   Q   E  E      E   E    E  Q.      +H
|--------------------------|-10-------8--8------------|----------------------|
|--------------------------|-10-------8--8------------|----------------------|
|----11--------(11)--------|-10-------8--8------------|----11------(11)------|
|----10--------(10)--------|-10-------8--8------------|----10------(10)------|
|-12-12--------(12)--------|-10-------8--8---------10h|=12-12------(12)------|
|--------------------------|-10-------8--8------------|----------------------|


  D       C       G                          D      C     G
   ~~~~~~~~~~
   Q   Q   Q    Q       Q      Q    Q   Q     W
|--------------------|---------------------|-----------------*|
|-27--27--27---27s===|=21s====15s==12\-----|-----------------*|
|--------------------|---------------------|-----------------*|
|--------------------|---------------------|-----------------*|
|--------------------|---------------------|-----------------*|
|--------------------|---------------------|-----------------*|
|
|  Q   Q   E E  E  E    E  Q.      +H         Q  Q  E E E  E
|-10-------8-8-------|---------------------|-10-----8-8------*|
|-10-------8-8-------|---------------------|-10-----8-8------*|
|-10-------8-8-------|----11------(11)-----|-10-----8-8------*|
|-10-------8-8-------|----10------(10)-----|-10-----8-8------*|
|-10-------8-8----10h|=12-12------(12)-----|-10-----8-8---10-*|
|-10-------8-8-------|---------------------|-10-----8-8------*|


Duration Legend
---------------
W - whole; H - half; Q - quarter; E - 8th; S - 16th; T - 32nd; X - 64th; a - acciaccatura
+ - note tied to previous; . - note dotted; .. - note double dotted
Uncapitalized letters represent notes that are staccato (1/2 duration)
Irregular groupings are notated above the duration line
Duration letters will always appear directly above the note/fret number it represents the
duration for.  Duration letters with no fret number below them represent rests.  Multi-
bar rests are notated in the form Wxn, where n is the number of bars to rest for.  Low
melody durations appear below the staff

Tablature Legend
----------------
 h   - hammer-on
 p   - pull-off
 b   - bend
 pb  - pre-bend
 r   - bend release (if no number after the r, then release immediately)
 /\  - slide into or out of (from/to "nowhere")
 s   - legato slide
 S   - shift slide
  - natural harmonic
[n]  - artificial harmonic
n(n) - tapped harmonic
 ~   - vibrato
 tr  - trill
 T   - tap
 TP  - trem. picking
 PM  - palm muting
\n/  - tremolo bar dip; n = amount to dip
 \n  - tremolo bar down
 n/  - tremolo bar up
/n\  - tremolo bar inverted dip
 =   - hold bend; also acts as connecting device for hammers/pulls
 <>  - volume swell (louder/softer)
 x   - on rhythm slash represents muted slash
 o   - on rhythm slash represents single note slash

Misc Legend
-----------
 |  - bar
||  - double bar
||o - repeat start
o|| - repeat end
*|  - double bar (ending)
 :  - bar (freetime)
 $  - Segno
 &  - Coda
Tempo markers -  = BPM(8/16=s8/s16), where s8 = swing 8ths, s16 = swing 16ths


Добавлено: 11.04.2012
Другие материалы по этой песне:

Страница создана 11.04.2012
http://primanota.ru/foghat/driving-wheel-chords.htm
Привет, Гость.
Предлагаем пройти революционный курс по гитаре.
Подарок от PrimaNota.Ru, забирай!