PrimaNota.ru - самый крупный в мире бесплатный архив песенных текстов, аккордов, табулатур и нот


Focus - Silvia - таба, видео

Регистрация Запомнить меня
Войти через:  Facebook Google Twitter Vk Yandex Mail.ru

Focus - Silvia - таба, видео

Печатать
Просмотров: 72
Sylvia By Focus (versie 3)
                                                                           3x
E---|-13-13-x-x-x-12-12-|-10-10-x-x-x-11-11-|-8-8-x-x-x-6-6-|---6-6-----|----|
B---|-13-13-x-x-x-13-13-|-12-12-x-x-x-11-11-|-9-9-x-x-x-8-8-|---6-6-----|----|
G---|-14-14-x-x-x-12-12-|-12-12-x-x-x-12-12-|-8-8-x-x-x-8-8-|---7-7-----|---*|
D---|-------------------|-------------------|---------------|-----------|---*|
A---|-------------------|-------------------|---------------|-----------|----|
E---|-------------------|-------------------|---------------|-----------|----|

                                                           1/2
E|-8-6-5h6p5-5-5h6-5-|-------------------|---------------|-5^--------|
B|-------------------|-8-6-6-5-6---5h6p5-|---5-6-----6-6-|-----8-----|
G|-------------------|-------------------|-7-----7-5-----|-----------|
D|-------------------|-------------------|---------------|-----------|
A|-------------------|-------------------|---------------|-----------|
E|-------------------|-------------------|---------------|-----------|

             1            1  1 LD                      1/2
E-----8---|-6^-6-5-----|-6^-6^---5h6p5---5-|-6-6p5--------|-------||----|
B---6-----|--------8-6-|-------------------|-------8-6-6^-|-6-6-6/||----|
G-------5-|------------|-------------------|--------------|-------||----|
D---------|------------|-------------------|--------------|-------||----|
A---------|------------|-------------------|--------------|-------||----|
E---------|------------|-------------------|--------------|-------||----|


E---13-13-x-x-x-12-12-|-10-10-x-x-x-11-11-|-8-8-x-x-x-6-6-|---6-6-8-----|
B---13-13-x-x-x-13-13-|-12-12-x-x-x-11-11-|-9-9-x-x-x-8-8-|---6-6/------|
G---14-14-x-x-x-12-12-|-12-12-x-x-x-12-12-|-8-8-x-x-x-8-8-|---7-7-------|
D---------------------|-------------------|---------------|-------------|
A---------------------|-------------------|---------------|-------------|
E---------------------|-------------------|---------------|-------------|

                                                             1/2 LD
E---||-6-5h6p5-5-5h6-5-|-------------------|---------------|----8---8---|
B---||-----------------|-8-6-6-5-6---5h6p5-|---5-6-----6-6-|-5^---6-----|
G---||-----------------|-------------------|-7-----7-5-----|-----------5|
D---||-----------------|-------------------|---------------|------------|
A---||-----------------|-------------------|---------------|------------|
E---||-----------------|-------------------|---------------|------------|


    1          1    1  1LD
E|-6^-6-5-----6^-|-6^-6^---5h6p5---5-|-6-6p5--------|-------|------|
B|--------8-6----|-------------------|-------8-6-6^-|-6-6-6-|------|
G|---------------|-------------------|--------------|-------|------|
D|---------------|-------------------|--------------|-------|------|
A|---------------|-------------------|--------------|-------|------|
E|---------------|-------------------|--------------|-------|------|

(01:17)Organ Break

E-13-12-------------|--/8-6-5h6p5-5-5h6-5-|---------------|--/10-10-10-10---|
B-------15-13-14-13-|---------------------|-8-6-6-5-6---6-|-----------------|
G-------------------|---------------------|---------------|-----------------|
D-------------------|---------------------|---------------|-----------------|
A-------------------|---------------------|---------------|-----------------|
E-------------------|---------------------|---------------|-----------------|


                 1/2 LD
E---10h11p10-8-10^-------|/10-10-8-7h8p7-7-7h8p7-|------------------|---|
B------------------------|-----------------------|-10-8-8-7-8---8-8-|---|
G------------------------|-----------------------|------------------|---|
D------------------------|-----------------------|------------------|---|
A------------------------|-----------------------|------------------|---|
E------------------------|-----------------------|------------------|---|


                     1/2 LD
E---12-12-12-12-12-12^-------10\8-|-8-------8-||-8-6-5h6p5-5-5h6-5-|----|
B---------------------------------|-----------||-------------------|----|
G---------------------------------|-----------||-------------------|----|
D---------------------------------|-----------||-------------------|----|
A---------------------------------|-----------||-------------------|----|
E---------------------------------|-----------||-------------------|----|


                                       1/2LD          1            1
E---------------------|---------------|----8---3---|-6^-6-5-----|-6^----|
B---8-6-6-5-6---5h6p5-|-7-5-6-7---6-6-|-5^---6-----|--------8-6-|-------|
G---------------------|---------5-----|----------5-|------------|-------|
D---------------------|---------------|------------|------------|-------|
A---------------------|---------------|------------|------------|-------|
E---------------------|---------------|------------|------------|-------|


     1 LD                                       Organ
E---6^---5h6p5---5-|-6-6p5-----------|-------||13-12------------------------------|
B------------------|-------8-6-6/7-7\|-6-6-6-||-----15-13-14-13-13-12-------------|
G------------------|-----------------|-------||-----------------------14-12-13-12-|
D------------------|-----------------|-------||-----------------------------------|
A------------------|-----------------|-------||-----------------------------------|
E------------------|-----------------|-------||-----------------------------------|

                                                     02:15
|-15-14-------------|-8-6-5h6p5-5-5h6-5-|---------------|--/10-10-10-10---|
|-------17-15-16-15-|-------------------|-8-6-6-5-6---6-|-----------------|
|-------------------|-------------------|---------------|-----------------|
|-------------------|-------------------|---------------|-----------------|
|-------------------|-------------------|---------------|-----------------|
|-------------------|-------------------|---------------|-----------------|

                 1/2 LD
E---10h11p10-8-10^-------|/10-10-8-7h8p7-7-7h8p7-|------------------|---|
B------------------------|-----------------------|-10-8-8-7-8---8-8-|---|
G------------------------|-----------------------|------------------|---|
D------------------------|-----------------------|------------------|---|
A------------------------|-----------------------|------------------|---|
E------------------------|-----------------------|------------------|---|

                  1/2
E-12-12-12-12-12-12^-10-13-|-12-----12-|-----|
B--------------------------|-----------|-----|
G--------------------------|-----------|-----|
D--------------------------|-----------|-----|
A--------------------------|-----------|-----|
E--------------------------|-----------|-----|

                                                             1/2
E---12-10-9h10p9-|-----------------------|/14-14-14-14-14-14^-12\10-|---|
B----------------|-12-10-10-9-10---10-10-|--------------------------|---|
G----------------|-----------------------|--------------------------|---|
D----------------|-----------------------|--------------------------|---|
A----------------|-----------------------|--------------------------|---|
E----------------|-----------------------|--------------------------|---|
     02:26            1
E-10-7----7----------------|
B------10--10-7-9-7--------|
G-------------------9^/----|
D--------------------------|
A--------------------------|
E--------------------------|


E----||-8-6-5h6p5-5-5h6-5-|-------------------|---------------|-5^------8----|
B----||-------------------|-8-6-6-5-6---5h6p5-|---5-6-----6-6-|-----8--------|
G---*||-------------------|-------------------|-7-----7-5-----|-------6------|
D---*||-------------------|-------------------|---------------|------------5-|
A----||-------------------|-------------------|---------------|--------------|
E----||-------------------|-------------------|---------------|--------------|

            1             1  1 LD                      1/2
E-6^-6-5-----|-6^-6^---5h6p5---5-|-6-6p5--------|-------|
B--------8-6-|-------------------|-------8-6-6^-|-6-6-6/|
G------------|-------------------|--------------|-------|
D------------|-------------------|--------------|-------|
A------------|-------------------|--------------|-------|
E------------|-------------------|--------------|-------|


-6-5-------|-------|
-----8-6-7-|-6-6-6-|
-----------|-------|
-----------|-------|
-----------|-------|
-----------|-------|

E---|-13-13-x-x-x-12-12-|-10-10-x-x-x-11-11-|-8-8-x-x-x-6-6-|---6-6-----|
B---|-13-13-x-x-x-13-13-|-12-12-x-x-x-11-11-|-9-9-x-x-x-8-8-|---6-6-----|
G---|-14-14-x-x-x-12-12-|-12-12-x-x-x-12-12-|-8-8-x-x-x-8-8-|---7-7-----|
D---|-------------------|-------------------|---------------|-----------|
A---|-------------------|-------------------|---------------|-----------|
E---|-------------------|-------------------|---------------|-----------|

Repeat to fade

========================================================================
==                       TABLATURE EXPLANATION                        ==
========================================================================

----------                ----------                ----t---|
----5h8--- Hammeron       ----(8)--- Ghost          ----6---| Tap
----------                ---------- Note           --------|
----5p8--- Pulloff        ----------                --------|

----------                ----------                -----p--|
----5/8--- Slide Up       -----x---- Dead           -----7--| Pop
----------                ---------- Note           --s-----|
----5\8--- Slide Down     ----------                --5-----| Slap

----------                ||------|| Repeat         --------|
----5~~~-- Vibrato        ||*----*||                ---5^---| Bend
----------                ||*----*||                --------|
----------                ||------||                --------|

----------                ----------                --------|
-4:------- Time           ----------                --------|
-4:------- Signature      ----------                --------|
----------                ----------                --------|


=========================================================================

I have used an existing version with no name. I made some modifications
based on the cover by Jason Edwards (see youtube).

With videolan (VLC) you can loop en slowdown downloaded youtube movies.
You can download the movies with keepvid.

Hope you enjoy it.

Pieter Vermeer.

==========================================================================
Добавлено: 03.06.2013
Другие материалы по этой песне:
  • Аккорды и текст

Страница создана 03.06.2013
http://primanota.ru/focus/silvia-chords.htm
Привет, Гость.
Предлагаем пройти революционный курс по гитаре.
Подарок от PrimaNota.Ru, забирай!