PrimaNota.ru - самый крупный в мире бесплатный архив песенных текстов, аккордов, табулатур и нот


Focus - Le Clochard - таба, бас-таба, видео

Регистрация Запомнить меня
Войти через:  Facebook Google Twitter Vk Yandex Mail.ru

Focus - Le Clochard - таба, бас-таба, видео

Печатать
Просмотров: 121
Уроки эстрадного вокала в Санкт-Петербурге
Artist: Focus
Song : Le Clochard (Moving Waves 1971)
Tuning: Standard
Transcriber: Phil Champ (phil.champ@ntlworld.com)


E||---------------------|-----------1---------|-----------3---------|
B||--1--------1----1----|--3-------------3----|--5-------------5----|
G||--2------------------|--2------------------|--4------------------|
D||--2------------------|--3------------------|--5------------------|
A||--0------------------|--0------------------|--0------------------|
E||---------------------|---------------------|---------------------|


                                                                   
|-----------5---------|--3----1----0---------|-------0---------0----|
|----------------6----|--3--------------3----|--6---------3----2----|
|--7------------------|--0-------------------|--7--------------2----|
|--7------------------|--0-------------------|--6--------------2----|
|--0------------------|--1-------------------|--8-------------------|
|---------------------|----------------------|--6-------------------|


                                                               
|-----------5--------|--3----1----0---------|-------------------|
|--------------------|--3--------------3----|--2----------------|
|--------------------|--0-------------------|--2----------------|
|--------------------|--0-------------------|--2----------------|
|--0-----------------|--1-------------------|--0----------------|
|--------------------|----------------------|-------------------|


                                                                
|--3----1----0---------|-------------------|---------------------|
|--3--------------3----|--2----------------|--2----3----3--------|
|--0-------------------|--2----------------|------------2--------|
|--0-------------------|--2----------------|------------3--------|
|--1-------------------|--0----------------|------------1--------|
|----------------------|-------------------|---------------------|


                                                              
|--------------------|---------------------|-------------------|
|--3--------3--------|--1--------1----1----|--3----------------|
|--------------------|--0------------------|--2----------------|
|--------------------|--2------------------|--0----------------|
|--------------------|--0------------------|--0----------------|
|--------------------|---------------------|-------------------|


                                                              
|------------------|--2----3----5--------|--5--------5----5----|
|------------------|------------7--------|---------------------|
|------------------|------------7--------|---------------------|
|------------------|------------0--------|---------------------|
|------------------|---------------------|---------------------|
|------------------|---------------------|---------------------|


                                                                 
|--7--------7----7----|--8---------8----8----|--3--------3--------|
|--9------------------|--10------------------|--5-----------------|
|--9------------------|--10------------------|--5-----------------|
|--0------------------|--0-------------------|--0-----------------|
|---------------------|----------------------|--------------------|
|---------------------|----------------------|--------------------|


                                                               
|--4----4----4----4----|--5----3----0--------|------------------|
|--5-------------------|--5----3----0--------|------------------|
|--4-------------------|--5----0----0--------|------------------|
|--0-------------------|--5----0----2--------|------------------|
|----------------------|--3----1----2--------|------------------|
|----------------------|------------0--------|------------------|


                                                              
|--------------5----|--3----1----0---------|-------------------|
|-------------------|--3--------------3----|--2----------------|
|-------------------|--0-------------------|--2----------------|
|-------------------|--0-------------------|--2----------------|
|-------------------|--1-------------------|--0----------------|
|-------------------|----------------------|-------------------|


                                                                
|--3----1----0---------|-------------------|---------------------|
|--3--------------3----|--2----------------|--2----3----3--------|
|--0-------------------|--2----------------|------------2--------|
|--0-------------------|--2----------------|------------3--------|
|--1-------------------|--0----------------|------------1--------|
|----------------------|-------------------|---------------------|


                                                                
|----------------------|-----------0---------|-------------------|
|--3----3----3----3----|--1-------------1----|--3----------------|
|----------------------|--0------------------|--2----------------|
|----------------------|--2------------------|--0----------------|
|----------------------|--0------------------|--0----------------|
|----------------------|---------------------|-------------------|


                                                                  
|--2----3------------|--5-------------------|--7-------------------|
|--------------------|--7---------7---------|--9---------9---------|
|--------------------|--7----7---------7----|--9----9---------9----|
|--------------------|--0-------------------|--0-------------------|
|--------------------|----------------------|----------------------|
|--------------------|----------------------|----------------------|


                                                 
|--8-----------------------|--3-------------------|
|--10----------10----------|--5---------5---------|
|--10----10----------10----|--5----5---------5----|
|--0-----------------------|--0-------------------|
|--------------------------|----------------------|
|--------------------------|----------------------|


                                                                 
|--4-------------------|----------------------|--0----------------|
|--5---------5---------|----------------------|--0----------------|
|--4----4---------4----|-------0---------0----|--0----------------|
|--0-------------------|----------------------|--2----------------|
|----------------------|--3---------1---------|--2----------------|
|----------------------|----------------------|--0----------------|


                                                              
|--------------5----|--3----1----0---------|-------------------|
|-------------------|--3--------------3----|--2----------------|
|-------------------|--0-------------------|--2----------------|
|-------------------|--0-------------------|--2----------------|
|-------------------|--1-------------------|--0----------------|
|-------------------|----------------------|-------------------|


                                                                
|--3----1----0---------|-------------------|---------------------|
|--3--------------3----|--2----------------|--2----3----3--------|
|--0-------------------|--2----------------|------------2--------|
|--0-------------------|--2----------------|------------3--------|
|--1-------------------|--0----------------|------------1--------|
|----------------------|-------------------|---------------------|


                                                                
|----------------------|---------------------|-------------------|
|--3----3----3----3----|--1--------1----1----|--3----------------|
|----------------------|--0------------------|--2----------------|
|----------------------|--2------------------|--0----------------|
|----------------------|--0------------------|--0----------------|
|----------------------|---------------------|-------------------|


                                                                 
|-------------------|----------------------|-----------------5----|
|--3----------------|--1----1----1----1----|--0--------------5----|
|-------------------|--3-------------------|--0----2----0----4----|
|-------------------|--3-------------------|--0--------------0----|
|-------------------|--1-------------------|--2--------------0----|
|-------------------|--1-------------------|--3-------------------|


                                                               
|-------------------|--3--------3----3----|--5--------5----5----|
|-------------------|--3------------------|--5------------------|
|--0----------------|--3------------------|--5------------------|
|-------------------|--5------------------|--7------------------|
|-------------------|--5------------------|--7------------------|
|-------------------|--3------------------|--5------------------|


                                                                    
|--0----0---------0----|--0----5----7----8----|--7----8----10--------|
|--1---------3----0----|-------6--------------|--8-------------------|
|--0--------------0----|-------5--------------|--7-------------------|
|--0--------------2----|-------0--------------|--0-------------------|
|--1--------------2----|----------------------|----------------------|
|-----------------0----|----------------------|----------------------|


                                              
|--9-----10----12--------|--11----------------||
|--10--------------------|--12----------------||
|--9---------------------|--11----------------||
|--0---------------------|--13----------------||
|------------------------|--0-----------------||
|------------------------|--0-----------------||


     
Добавлено: 13.11.2013
Другие материалы по этой песне:

Страница создана 22.02.2012
http://primanota.ru/focus/le-clochard-chords.htm
Привет, Гость.
Предлагаем пройти революционный курс по гитаре.
Подарок от PrimaNota.Ru, забирай!