PrimaNota.ru - самый крупный в мире бесплатный архив песенных текстов, аккордов, табулатур и нот


Focus - Elspeth Of Nottingham - таба, видео

Регистрация Запомнить меня
Войти через:  Facebook Google Twitter Vk Yandex Mail.ru

Focus - Elspeth Of Nottingham - таба, видео

Печатать
Просмотров: 67
Уроки эстрадного вокала в Санкт-Петербурге



Date: Sun, 05 Feb 2006 10:52:43 -0800
From: Bill 
Subject: f/focus/elspeth_of_nottingham.tab

Elspeth of Nottingham                              
 
solo guitar
                                                                        
E||--3----5----6----|--5----6---------|--8----7---------|---------------|
B||-------6----4----|--3----4----6----|--8----8---------|--6------------|
G||-----------------|-----------------|------------7----|--5------------|
D||-----------------|-----------------|-----------------|---------------|
A||-----------------|-----------------|-----------------|---------------|
E||-----------------|-----------------|-----------------|---------------|
 

                                                                     
--3----------------|----------------|----------------|--3------------|
--4---3-1--3--4----|--3-------------|--1--------3----|--4------------|
--5----------------|--3----0--------|--1--------3----|--3------------|
-------------------|----------------|--6--------3----|--1------------|
--3----------------|--1----1--------|----------------|---------------|
-------------------|-------3--------|----------------|---------------|
 

                                                                        
--5----3----5----|--1---------3----|--0-----1-------0--|--1----0--------|
--6--------------|--3---------3----|--1-----1----3-----|-------1--------|
-----------------|-----------------|-------------------|----------------|
-----------------|--0--------------|-------------------|----------------|
--3--------------|-------3----2----|--3--1--0----------|-------3--------|
-----------------|-----------------|-------------3-----|----------------|
 

                                                                        
------5---3-5-----|--5----6----5----|-------5--------|------6--5--3--1--|
------6--------6--|-------6----6----|--6----5--------|------------------|
------------------|-----------------|--7----5--------|------------------|
------3-----------|-----------------|--0-------------|------------------|
------------------|------------3----|----------------|------------------|
------------------|-------6---------|-------5--------|------1-----------|
 

                                                                         
--0--------------|------------7----|--5--0--5---------|--------3---------|
--1----1----3----|-------0---------|--------6----6----|--8-----4---------|
-------2----3----|----2--0---------|------------------|--8-----5----5----|
-------7----8----|-----------------|--------3----0----|-----0------------|
--3--------------|-----------------|------------------|--6-----3---------|
-----------------|-----------------|------------------|------------------|
 

                                                                 
--3------------|------3--------|--5----3---------|------3--------|
--3------------|------4--------|--6----3---------|------4--------|
--4------------|------3--------|--5----4---------|------3--------|
---------------|------1--------|--3----5---------|------1--------|
---------------|---------------|-----------------|---------------|
--3------------|---------------|------------3----|---------------|
 

                                                                      
--5----3---------|------3----3----|-------1----1----|--0----6----5----|
--6----3---------|------3----3----|--1----3----3----|--1---------6----|
--5----4---------|------4----4----|-----------------|------------5----|
--3----5---------|------3----3----|--1--------------|------------3----|
-----------------|----------------|-------2----3----|-----------------|
------------3----|----------------|-----------------|-----------------|
 

                                                                       
----6--3--------|-------3-----------|------------------|---------------|
-------4--------|-------4--3--1--3--|--4----3----------|------1--------|
-------5--------|-------5-----------|-------3----0-----|------1--------|
----0-----------|--0----------------|------------8-----|------6--------|
-------6--------|-------3-----------|-------1----10----|---------------|
----------------|-------------------|------------------|---------------|
 

                                                                         
-------3--------|------4---------|--4----6---------|---------------------|
--3----4--------|------4---------|--6----6---------|--6--5--6---8-9------|
--3----3--------|------5----0----|--5--------------|--5--------------10--|
--3----1--------|------6---------|--3--------------|--5------------------|
----------------|----------------|-------4---------|--------8------------|
----------------|----------------|------------6----|---------------------|
 

                                                                            

------------------|------------------|------------------|-------------------
|
--11--------------|------10----------|------------------|---------6---------
|
--10----9---------|------10----10----|------10----12----|--9------5----7----
|
--------10--------|------------12----|------12----12----|--10----------8----
|
------------------|------------------|------------------|-------------------
|
--10----8---------|------8-----10----|------10----------|--8---7--5----6----
|
 

                                                                     
-------------3----|--5----6----7----|--8----7--------|---------------|
--5----7-----3----|--7----8----8----|--8----8--------|------8--------|
--5----7----------|-----------------|--8----7--------|------8--------|
-------0----------|-----------------|----------------|------8--------|
--3-------3--1----|--0--------------|----------------|------6--------|
------------------|-------3----1----|-------3--------|---------------|
 

                                                                       
-----------------|-----------------|------------------|----------------|
--10----8--------|--10----8--------|--10----0---------|----------------|
--10----8--------|--10----8--------|--10----12--------|------12--------|
--10----8--------|--10----8--------|--10----12--------|------13--------|
--8-----6--------|--8-----6--------|--8-----10--------|------13--------|
-----------------|-----------------|------------------|------11--------|
 

                                                                      
-----------------|-----------------|------------------|--------------||
--10----8--------|--10----8--------|--10----0---------|--------------||
--10----8--------|--10----8--------|--10----12--------|--------------||
--10----8--------|--10----8--------|--10----12--------|--------------||
--8-----6--------|--8-----6--------|--8-----10--------|--------------||
-----------------|-----------------|------------------|--------------||
 

tab by Bustard
 

 


Добавлено: 14.09.2013
Другие материалы по этой песне:

Страница создана 29.07.2012
http://primanota.ru/focus/elspeth-of-nottingham-chords.htm
Привет, Гость.
Предлагаем пройти революционный курс по гитаре.
Подарок от PrimaNota.Ru, забирай!